  0
SECTION
  2
HEADER
  9
$ACADVER
  1
AC1018
  9
$ACADMAINTVER
 70
     0
  9
$DWGCODEPAGE
  3
ANSI_1252
  9
$INSBASE
 10
0.0
 20
0.0
 30
0.0
  9
$EXTMIN
 10
0.0
 20
833.0
 30
0.0
  9
$EXTMAX
 10
96.0
 20
881.0
 30
0.033566068196488
  9
$LIMMIN
 10
0.0
 20
0.0
  9
$LIMMAX
 10
12.0
 20
9.0
  9
$ORTHOMODE
 70
     0
  9
$REGENMODE
 70
     1
  9
$FILLMODE
 70
     1
  9
$QTEXTMODE
 70
     0
  9
$MIRRTEXT
 70
     1
  9
$LTSCALE
 40
0.0393700787401575
  9
$ATTMODE
 70
     1
  9
$TEXTSIZE
 40
0.2
  9
$TRACEWID
 40
0.05
  9
$TEXTSTYLE
  7
Standard
  9
$CLAYER
  8
0
  9
$CELTYPE
  6
ByLayer
  9
$CECOLOR
 62
   256
  9
$CELTSCALE
 40
1.0
  9
$DISPSILH
 70
     0
  9
$DIMSCALE
 40
1.0
  9
$DIMASZ
 40
0.18
  9
$DIMEXO
 40
0.0625
  9
$DIMDLI
 40
0.38
  9
$DIMRND
 40
0.0
  9
$DIMDLE
 40
0.0
  9
$DIMEXE
 40
0.18
  9
$DIMTP
 40
0.0
  9
$DIMTM
 40
0.0
  9
$DIMTXT
 40
0.18
  9
$DIMCEN
 40
0.09
  9
$DIMTSZ
 40
0.0
  9
$DIMTOL
 70
     0
  9
$DIMLIM
 70
     0
  9
$DIMTIH
 70
     1
  9
$DIMTOH
 70
     1
  9
$DIMSE1
 70
     0
  9
$DIMSE2
 70
     0
  9
$DIMTAD
 70
     0
  9
$DIMZIN
 70
     0
  9
$DIMBLK
  1

  9
$DIMASO
 70
     1
  9
$DIMSHO
 70
     1
  9
$DIMPOST
  1

  9
$DIMAPOST
  1

  9
$DIMALT
 70
     0
  9
$DIMALTD
 70
     2
  9
$DIMALTF
 40
25.4
  9
$DIMLFAC
 40
1.0
  9
$DIMTOFL
 70
     0
  9
$DIMTVP
 40
0.0
  9
$DIMTIX
 70
     0
  9
$DIMSOXD
 70
     0
  9
$DIMSAH
 70
     0
  9
$DIMBLK1
  1

  9
$DIMBLK2
  1

  9
$DIMSTYLE
  2
Standard
  9
$DIMCLRD
 70
     0
  9
$DIMCLRE
 70
     0
  9
$DIMCLRT
 70
     0
  9
$DIMTFAC
 40
1.0
  9
$DIMGAP
 40
0.09
  9
$DIMJUST
 70
     0
  9
$DIMSD1
 70
     0
  9
$DIMSD2
 70
     0
  9
$DIMTOLJ
 70
     1
  9
$DIMTZIN
 70
     0
  9
$DIMALTZ
 70
     0
  9
$DIMALTTZ
 70
     0
  9
$DIMUPT
 70
     0
  9
$DIMDEC
 70
     4
  9
$DIMTDEC
 70
     4
  9
$DIMALTU
 70
     2
  9
$DIMALTTD
 70
     2
  9
$DIMTXSTY
  7
Standard
  9
$DIMAUNIT
 70
     0
  9
$DIMADEC
 70
     0
  9
$DIMALTRND
 40
0.0
  9
$DIMAZIN
 70
     0
  9
$DIMDSEP
 70
    46
  9
$DIMATFIT
 70
     3
  9
$DIMFRAC
 70
     0
  9
$DIMLDRBLK
  1

  9
$DIMLUNIT
 70
     2
  9
$DIMLWD
 70
    -2
  9
$DIMLWE
 70
    -2
  9
$DIMTMOVE
 70
     2
  9
$LUNITS
 70
     4
  9
$LUPREC
 70
     3
  9
$SKETCHINC
 40
0.1
  9
$FILLETRAD
 40
0.5
  9
$AUNITS
 70
     0
  9
$AUPREC
 70
     0
  9
$MENU
  1
.
  9
$ELEVATION
 40
0.0
  9
$PELEVATION
 40
0.0
  9
$THICKNESS
 40
0.0
  9
$LIMCHECK
 70
     0
  9
$CHAMFERA
 40
0.0
  9
$CHAMFERB
 40
0.0
  9
$CHAMFERC
 40
0.0
  9
$CHAMFERD
 40
0.0
  9
$SKPOLY
 70
     0
  9
$TDCREATE
 40
2457448.402280382
  9
$TDUCREATE
 40
2457448.735613715
  9
$TDUPDATE
 40
2457448.402280613
  9
$TDUUPDATE
 40
2457448.735613947
  9
$TDINDWG
 40
0.0000000116
  9
$TDUSRTIMER
 40
0.0000000116
  9
$USRTIMER
 70
     1
  9
$ANGBASE
 50
0.0
  9
$ANGDIR
 70
     0
  9
$PDMODE
 70
     0
  9
$PDSIZE
 40
0.0
  9
$PLINEWID
 40
0.0
  9
$SPLFRAME
 70
     0
  9
$SPLINETYPE
 70
     6
  9
$SPLINESEGS
 70
     8
  9
$HANDSEED
  5
1B2
  9
$SURFTAB1
 70
     6
  9
$SURFTAB2
 70
     6
  9
$SURFTYPE
 70
     6
  9
$SURFU
 70
     6
  9
$SURFV
 70
     6
  9
$UCSBASE
  2

  9
$UCSNAME
  2

  9
$UCSORG
 10
0.0
 20
0.0
 30
0.0
  9
$UCSXDIR
 10
1.0
 20
0.0
 30
0.0
  9
$UCSYDIR
 10
0.0
 20
1.0
 30
0.0
  9
$UCSORTHOREF
  2

  9
$UCSORTHOVIEW
 70
     0
  9
$UCSORGTOP
 10
0.0
 20
0.0
 30
0.0
  9
$UCSORGBOTTOM
 10
0.0
 20
0.0
 30
0.0
  9
$UCSORGLEFT
 10
0.0
 20
0.0
 30
0.0
  9
$UCSORGRIGHT
 10
0.0
 20
0.0
 30
0.0
  9
$UCSORGFRONT
 10
0.0
 20
0.0
 30
0.0
  9
$UCSORGBACK
 10
0.0
 20
0.0
 30
0.0
  9
$PUCSBASE
  2

  9
$PUCSNAME
  2

  9
$PUCSORG
 10
0.0
 20
0.0
 30
0.0
  9
$PUCSXDIR
 10
1.0
 20
0.0
 30
0.0
  9
$PUCSYDIR
 10
0.0
 20
1.0
 30
0.0
  9
$PUCSORTHOREF
  2

  9
$PUCSORTHOVIEW
 70
     0
  9
$PUCSORGTOP
 10
0.0
 20
0.0
 30
0.0
  9
$PUCSORGBOTTOM
 10
0.0
 20
0.0
 30
0.0
  9
$PUCSORGLEFT
 10
0.0
 20
0.0
 30
0.0
  9
$PUCSORGRIGHT
 10
0.0
 20
0.0
 30
0.0
  9
$PUCSORGFRONT
 10
0.0
 20
0.0
 30
0.0
  9
$PUCSORGBACK
 10
0.0
 20
0.0
 30
0.0
  9
$USERI1
 70
     0
  9
$USERI2
 70
     0
  9
$USERI3
 70
     0
  9
$USERI4
 70
     0
  9
$USERI5
 70
     0
  9
$USERR1
 40
0.0
  9
$USERR2
 40
0.0
  9
$USERR3
 40
0.0
  9
$USERR4
 40
0.0
  9
$USERR5
 40
0.0
  9
$WORLDVIEW
 70
     1
  9
$SHADEDGE
 70
     3
  9
$SHADEDIF
 70
    70
  9
$TILEMODE
 70
     1
  9
$MAXACTVP
 70
    64
  9
$PINSBASE
 10
0.0
 20
0.0
 30
0.0
  9
$PLIMCHECK
 70
     0
  9
$PEXTMIN
 10
1.000000000000000E+20
 20
1.000000000000000E+20
 30
1.000000000000000E+20
  9
$PEXTMAX
 10
-1.000000000000000E+20
 20
-1.000000000000000E+20
 30
-1.000000000000000E+20
  9
$PLIMMIN
 10
0.0
 20
0.0
  9
$PLIMMAX
 10
12.0
 20
9.0
  9
$UNITMODE
 70
     0
  9
$VISRETAIN
 70
     1
  9
$PLINEGEN
 70
     0
  9
$PSLTSCALE
 70
     1
  9
$TREEDEPTH
 70
  3020
  9
$CMLSTYLE
  2
Standard
  9
$CMLJUST
 70
     0
  9
$CMLSCALE
 40
1.0
  9
$PROXYGRAPHICS
 70
     1
  9
$MEASUREMENT
 70
     0
  9
$CELWEIGHT
370
    -1
  9
$ENDCAPS
280
     0
  9
$JOINSTYLE
280
     0
  9
$LWDISPLAY
290
     0
  9
$INSUNITS
 70
     1
  9
$HYPERLINKBASE
  1

  9
$STYLESHEET
  1

  9
$XEDIT
290
     1
  9
$CEPSNTYPE
380
     0
  9
$PSTYLEMODE
290
     1
  9
$FINGERPRINTGUID
  2
{764A896A-C26F-4ECF-81E9-446E4AB5FB2C}
  9
$VERSIONGUID
  2
{FAEB1C32-E019-11D5-929B-00C0DF256EC4}
  9
$EXTNAMES
290
     1
  9
$PSVPSCALE
 40
0.0
  9
$OLESTARTUP
290
     0
  9
$SORTENTS
280
   127
  9
$INDEXCTL
280
     0
  9
$HIDETEXT
280
     1
  9
$XCLIPFRAME
290
     0
  9
$HALOGAP
280
     0
  9
$OBSCOLOR
 70
   257
  9
$OBSLTYPE
280
     0
  9
$INTERSECTIONDISPLAY
280
     0
  9
$INTERSECTIONCOLOR
 70
   257
  9
$DIMASSOC
280
     2
  9
$PROJECTNAME
  1

  0
ENDSEC
  0
SECTION
  2
CLASSES
  0
CLASS
  1
ACDBDICTIONARYWDFLT
  2
AcDbDictionaryWithDefault
  3
ObjectDBX Classes
 90
        0
 91
        4
280
     0
281
     0
  0
CLASS
  1
VISUALSTYLE
  2
AcDbVisualStyle
  3
ObjectDBX Classes
 90
     4095
 91
        4
280
     0
281
     0
  0
CLASS
  1
MATERIAL
  2
AcDbMaterial
  3
ObjectDBX Classes
 90
     1153
 91
        4
280
     0
281
     0
  0
CLASS
  1
SCALE
  2
AcDbScale
  3
ObjectDBX Classes
 90
     1153
 91
        4
280
     0
281
     0
  0
CLASS
  1
SUN
  2
AcDbSun
  3
SCENEOE
 90
     1153
 91
        4
280
     0
281
     0
  0
CLASS
  1
DICTIONARYVAR
  2
AcDbDictionaryVar
  3
ObjectDBX Classes
 90
        0
 91
        4
280
     0
281
     0
  0
ENDSEC
  0
SECTION
  2
TABLES
  0
TABLE
  2
VPORT
  5
8
330
0
100
AcDbSymbolTable
 70
     1
  0
VPORT
  5
29
330
8
100
AcDbSymbolTableRecord
100
AcDbViewportTableRecord
  2
*Active
 70
     0
 10
0.0
 20
0.0
 11
1.0
 21
1.0
 12
48.0
 22
857.0
 13
0.0
 23
0.0
 14
0.5
 24
0.5
 15
0.5
 25
0.5
 16
0.0
 26
0.0
 36
1.0
 17
0.0
 27
0.0
 37
0.0
 40
48.96
 41
2.0
 42
50.0
 43
0.0
 44
0.0
 50
0.0
 51
0.0
 71
     0
 72
   100
 73
     1
 74
     3
 75
     0
 76
     0
 77
     0
 78
     0
281
     0
 65
     1
110
0.0
120
0.0
130
0.0
111
1.0
121
0.0
131
0.0
112
0.0
122
1.0
132
0.0
 79
     0
146
0.0
  0
ENDTAB
  0
TABLE
  2
LTYPE
  5
5
330
0
100
AcDbSymbolTable
 70
     1
  0
LTYPE
  5
14
330
5
100
AcDbSymbolTableRecord
100
AcDbLinetypeTableRecord
  2
ByBlock
 70
     0
  3

 72
    65
 73
     0
 40
0.0
  0
LTYPE
  5
15
330
5
100
AcDbSymbolTableRecord
100
AcDbLinetypeTableRecord
  2
ByLayer
 70
     0
  3

 72
    65
 73
     0
 40
0.0
  0
LTYPE
  5
16
330
5
100
AcDbSymbolTableRecord
100
AcDbLinetypeTableRecord
  2
Continuous
 70
     0
  3
Solid line
 72
    65
 73
     0
 40
0.0
  0
ENDTAB
  0
TABLE
  2
LAYER
  5
2
330
0
100
AcDbSymbolTable
 70
     2
  0
LAYER
  5
10
330
2
100
AcDbSymbolTableRecord
100
AcDbLayerTableRecord
  2
0
 70
     0
 62
     7
  6
Continuous
370
    -3
390
F
  0
LAYER
  5
6A
330
2
100
AcDbSymbolTableRecord
100
AcDbLayerTableRecord
  2
owl_86_48_cutting_plan_sheet2
 70
     0
 62
     1
420
 16711680
  6
Continuous
370
    -3
390
F
  0
ENDTAB
  0
TABLE
  2
STYLE
  5
3
330
0
100
AcDbSymbolTable
 70
     1
  0
STYLE
  5
11
330
3
100
AcDbSymbolTableRecord
100
AcDbTextStyleTableRecord
  2
Standard
 70
     0
 40
0.0
 41
1.0
 50
0.0
 71
     0
 42
0.2
  3
txt
  4

  0
ENDTAB
  0
TABLE
  2
VIEW
  5
6
330
0
100
AcDbSymbolTable
 70
     0
  0
ENDTAB
  0
TABLE
  2
UCS
  5
7
330
0
100
AcDbSymbolTable
 70
     0
  0
ENDTAB
  0
TABLE
  2
APPID
  5
9
330
0
100
AcDbSymbolTable
 70
     1
  0
APPID
  5
12
330
9
100
AcDbSymbolTableRecord
100
AcDbRegAppTableRecord
  2
ACAD
 70
     0
  0
ENDTAB
  0
TABLE
  2
DIMSTYLE
  5
A
330
0
100
AcDbSymbolTable
 70
     1
100
AcDbDimStyleTable
  0
DIMSTYLE
105
27
330
A
100
AcDbSymbolTableRecord
100
AcDbDimStyleTableRecord
  2
Standard
 70
     0
178
     0
340
11
  0
ENDTAB
  0
TABLE
  2
BLOCK_RECORD
  5
1
330
0
100
AcDbSymbolTable
 70
     1
  0
BLOCK_RECORD
  5
1F
330
1
100
AcDbSymbolTableRecord
100
AcDbBlockTableRecord
  2
*Model_Space
340
22
  0
BLOCK_RECORD
  5
1B
330
1
100
AcDbSymbolTableRecord
100
AcDbBlockTableRecord
  2
*Paper_Space
340
1E
  0
BLOCK_RECORD
  5
23
330
1
100
AcDbSymbolTableRecord
100
AcDbBlockTableRecord
  2
*Paper_Space0
340
26
  0
ENDTAB
  0
ENDSEC
  0
SECTION
  2
BLOCKS
  0
BLOCK
  5
20
330
1F
100
AcDbEntity
  8
0
100
AcDbBlockBegin
  2
*Model_Space
 70
     0
 10
0.0
 20
0.0
 30
0.0
  3
*Model_Space
  1
*Model_Space
  0
ENDBLK
  5
21
330
1F
100
AcDbEntity
  8
0
100
AcDbBlockEnd
  0
BLOCK
  5
1C
330
1B
100
AcDbEntity
 67
     1
  8
0
100
AcDbBlockBegin
  2
*Paper_Space
 70
     0
 10
0.0
 20
0.0
 30
0.0
  3
*Paper_Space
  1
*Paper_Space
  0
ENDBLK
  5
1D
330
1B
100
AcDbEntity
 67
     1
  8
0
100
AcDbBlockEnd
  0
BLOCK
  5
24
330
23
100
AcDbEntity
  8
0
100
AcDbBlockBegin
  2
*Paper_Space0
 70
     0
 10
0.0
 20
0.0
 30
0.0
  3
*Paper_Space0
  1
*Paper_Space0
  0
ENDBLK
  5
25
330
23
100
AcDbEntity
  8
0
100
AcDbBlockEnd
  0
ENDSEC
  0
SECTION
  2
ENTITIES
  0
CIRCLE
  5
6B
330
1F
100
AcDbEntity
  8
owl_86_48_cutting_plan_sheet2
100
AcDbCircle
 10
13.30001223571207
 20
852.0500000000001
 30
0.0000000000000284
 40
0.125
  0
CIRCLE
  5
6C
330
1F
100
AcDbEntity
  8
owl_86_48_cutting_plan_sheet2
100
AcDbCircle
 10
13.60001223571206
 20
852.5500000000001
 30
0.0000000000000426
 40
0.125
  0
CIRCLE
  5
6D
330
1F
100
AcDbEntity
  8
owl_86_48_cutting_plan_sheet2
100
AcDbCircle
 10
34.48419531529069
 20
852.0500000000001
 30
0.0000000000000426
 40
0.125
  0
CIRCLE
  5
6E
330
1F
100
AcDbEntity
  8
owl_86_48_cutting_plan_sheet2
100
AcDbCircle
 10
34.18419531529069
 20
852.5500000000001
 30
0.0000000000000426
 40
0.125
  0
CIRCLE
  5
6F
330
1F
100
AcDbEntity
  8
owl_86_48_cutting_plan_sheet2
100
AcDbCircle
 10
13.85062410311514
 20
854.4849936165666
 30
0.0000000000000426
 40
0.125
  0
CIRCLE
  5
70
330
1F
100
AcDbEntity
  8
owl_86_48_cutting_plan_sheet2
100
AcDbCircle
 10
14.57195903292202
 20
857.1264613176031
 30
0.0000000000000426
 40
0.125
  0
CIRCLE
  5
71
330
1F
100
AcDbEntity
  8
owl_86_48_cutting_plan_sheet2
100
AcDbCircle
 10
16.07647552029403
 20
859.3986069221446
 30
0.0000000000000568
 40
0.125
  0
CIRCLE
  5
72
330
1F
100
AcDbEntity
  8
owl_86_48_cutting_plan_sheet2
100
AcDbCircle
 10
18.45272139864376
 20
860.7263717713214
 30
0.0000000000000568
 40
0.125
  0
CIRCLE
  5
73
330
1F
100
AcDbEntity
  8
owl_86_48_cutting_plan_sheet2
100
AcDbCircle
 10
21.14853685028962
 20
861.208668221898
 30
0.0000000000000142
 40
0.125
  0
CIRCLE
  5
74
330
1F
100
AcDbEntity
  8
owl_86_48_cutting_plan_sheet2
100
AcDbCircle
 10
23.89208632187692
 20
861.2569615013396
 30
0.0000000000000426
 40
0.125
  0
CIRCLE
  5
75
330
1F
100
AcDbEntity
  8
owl_86_48_cutting_plan_sheet2
100
AcDbCircle
 10
26.63563600974382
 20
861.2086663454901
 30
0.0000000000000426
 40
0.125
  0
CIRCLE
  5
76
330
1F
100
AcDbEntity
  8
owl_86_48_cutting_plan_sheet2
100
AcDbCircle
 10
29.33145062910306
 20
860.7263652875107
 30
0.0000000000000711
 40
0.125
  0
CIRCLE
  5
77
330
1F
100
AcDbEntity
  8
owl_86_48_cutting_plan_sheet2
100
AcDbCircle
 10
31.70769521208659
 20
859.3985975106315
 30
0.0000000000000426
 40
0.125
  0
CIRCLE
  5
78
330
1F
100
AcDbEntity
  8
owl_86_48_cutting_plan_sheet2
100
AcDbCircle
 10
33.2122188517794
 20
857.1264562661075
 30
0.0000000000000426
 40
0.125
  0
CIRCLE
  5
79
330
1F
100
AcDbEntity
  8
owl_86_48_cutting_plan_sheet2
100
AcDbCircle
 10
33.93356833925017
 20
854.4849924660783
 30
0.0
 40
0.125
  0
LINE
  5
7A
330
1F
100
AcDbEntity
  8
owl_86_48_cutting_plan_sheet2
100
AcDbLine
 10
33.78419180089581
 20
851.75
 30
0.0000000000000426
 11
35.28420757098081
 21
851.75
 31
0.0000000000000568
  0
SPLINE
  5
7B
330
1F
100
AcDbEntity
  8
owl_86_48_cutting_plan_sheet2
100
AcDbSpline
210
0.0
220
0.0
230
1.0
 70
     8
 71
     3
 72
    53
 73
    49
 74
     0
 42
0.000000001
 43
0.0000000001
 40
39.10679885138482
 40
39.10679885138482
 40
39.10679885138482
 40
39.10679885138482
 40
42.83759753715434
 40
42.83759753715434
 40
42.83759753715434
 40
44.70256965418049
 40
44.70256965418049
 40
44.70256965418049
 40
46.55545249121693
 40
46.55545249121693
 40
46.55545249121693
 40
48.39140698815674
 40
48.39140698815674
 40
48.39140698815674
 40
50.215317191824
 40
50.215317191824
 40
50.215317191824
 40
52.03461691854626
 40
52.03461691854626
 40
52.03461691854626
 40
53.85413451362201
 40
53.85413451362201
 40
53.85413451362201
 40
57.41398838752937
 40
57.41398838752937
 40
57.41398838752937
 40
60.97383812975417
 40
60.97383812975417
 40
60.97383812975417
 40
62.79335312327122
 40
62.79335312327122
 40
62.79335312327122
 40
64.61264969683177
 40
64.61264969683177
 40
64.61264969683177
 40
66.43655501067687
 40
66.43655501067687
 40
66.43655501067687
 40
68.27250420497273
 40
68.27250420497273
 40
68.27250420497273
 40
70.12538319591911
 40
70.12538319591911
 40
70.12538319591911
 40
71.99035256749868
 40
71.99035256749868
 40
71.99035256749868
 40
75.72114910803423
 40
75.72114910803423
 40
75.72114910803423
 40
75.72114910803423
 10
35.28420757098081
 20
851.75
 30
0.0000000000000568
 10
35.27838717543187
 20
852.9847918988625
 30
0.0000000000000284
 10
35.18245049360488
 20
854.2396998706159
 30
0.0000000000000142
 10
34.92535267452337
 20
855.4501208209361
 30
0.0000000000000284
 10
34.7964940041236
 20
856.0567896555435
 30
0.0000000000000142
 10
34.62606301773137
 20
856.6573391245025
 30
0.0000000000000284
 10
34.40591716910518
 20
857.2374784039664
 30
0.0000000000000284
 10
34.18740782588198
 20
857.8133050830736
 30
0.0000000000000284
 10
33.91858896271479
 20
858.3725266579183
 30
0.0000000000000284
 10
33.58927949659589
 20
858.8937215302333
 30
0.0000000000000284
 10
33.26370665355802
 20
859.4090024857313
 30
0.0000000000000142
 10
32.87785518347286
 20
859.888921131924
 30
0.0000000000000426
 10
32.42651090894267
 20
860.3002258172359
 30
0.0000000000000284
 10
31.97806311731152
 20
860.7088909720286
 30
0.0000000000000426
 10
31.46841119837926
 20
861.0466655334467
 30
0.0000000000000426
 10
30.92726081432193
 20
861.3188932550754
 30
0.0000000000000426
 10
30.38602330737905
 20
861.5911648041971
 30
0.0000000000000426
 10
29.81382497392312
 20
861.7975928638396
 30
0.0000000000000284
 10
29.22920414889057
 20
861.9538438365588
 30
0.0000000000000426
 10
28.64410949378271
 20
862.1102214493276
 30
0.0000000000000284
 10
28.04488091465744
 20
862.2167897407062
 30
0.0000000000000568
 10
27.44373420074953
 20
862.2871889987797
 30
0.0000000000000426
 10
26.26493896212172
 20
862.4252356823928
 30
0.0000000000000568
 10
25.07612756905598
 20
862.4248992575497
 30
0.0000000000000284
 10
23.89207204241211
 20
862.4069647925584
 30
0.0000000000000426
 10
22.70801788335996
 20
862.4248992453274
 30
0.0000000000000284
 10
21.51920789381268
 20
862.4252357239211
 30
0.0000000000000426
 10
20.34041402990523
 20
862.2871889987797
 30
0.0000000000000426
 10
19.73926820430169
 20
862.2167897414558
 30
0.0000000000000426
 10
19.1400404761697
 20
862.1102214506758
 30
0.0000000000000568
 10
18.55494673359898
 20
861.9538438365588
 30
0.0000000000000284
 10
17.97032707277934
 20
861.797592929955
 30
0.0000000000000284
 10
17.39812966679091
 20
861.5911649004694
 30
0.0000000000000284
 10
16.85689347173975
 20
861.3188932550754
 30
0.0000000000000284
 10
16.31574484545723
 20
861.0466656616
 30
0.0000000000000284
 10
15.80609488000904
 20
860.7088911414502
 30
0.0000000000000284
 10
15.3576494221211
 20
860.3002258172359
 30
0.0000000000000284
 10
14.90630756307311
 20
859.8889210221599
 30
0.0000000000000142
 10
14.52045912209968
 20
859.4090023152673
 30
0.0000000000000426
 10
14.19488926777213
 20
858.8937215302333
 30
0.0000000000000284
 10
13.8655825949284
 20
858.3725264667333
 30
0.0000000000000284
 10
13.59676655968079
 20
857.8133048549112
 30
0.0000000000000142
 10
13.37826034661764
 20
857.2374784039664
 30
0.0000000000000142
 10
13.15811750654379
 20
856.6573389721233
 30
0.0000000000000284
 10
12.98768987569159
 20
856.0567894790138
 30
0.0000000000000568
 10
12.85883483916617
 20
855.4501208209361
 30
0.0000000000000568
 10
12.60174402869689
 20
854.2396990850289
 30
0.0000000000000711
 10
12.50581588216487
 20
852.9847910803607
 30
0.0000000000000568
 10
12.5
 20
851.75
 30
0.0000000000000568
  0
LINE
  5
7C
330
1F
100
AcDbEntity
  8
owl_86_48_cutting_plan_sheet2
100
AcDbLine
 10
12.5
 20
851.75
 30
0.0000000000000568
 11
14.00001574393734
 21
851.75
 31
0.0000000000000426
  0
SPLINE
  5
7D
330
1F
100
AcDbEntity
  8
owl_86_48_cutting_plan_sheet2
100
AcDbSpline
210
0.0
220
0.0
230
1.0
 70
     8
 71
     3
 72
    29
 73
    25
 74
     0
 42
0.000000001
 43
0.0000000001
 40
77.22116485197157
 40
77.22116485197157
 40
77.22116485197157
 40
77.22116485197157
 40
80.94440009944437
 40
80.94440009944437
 40
80.94440009944437
 40
82.80936947102393
 40
82.80936947102393
 40
82.80936947102393
 40
84.66224846197031
 40
84.66224846197031
 40
84.66224846197031
 40
86.49819765626617
 40
86.49819765626617
 40
86.49819765626617
 40
88.32210297011127
 40
88.32210297011127
 40
88.32210297011127
 40
90.14139954367182
 40
90.14139954367182
 40
90.14139954367182
 40
91.96091453718887
 40
91.96091453718887
 40
91.96091453718887
 40
95.52076427941367
 40
95.52076427941367
 40
95.52076427941367
 40
95.52076427941367
 10
14.00001574393734
 20
851.75
 30
0.0000000000000426
 10
14.00550603749011
 20
852.9095955979814
 30
0.0000000000000568
 10
14.09715062142232
 20
854.0623868104564
 30
0.0000000000000568
 10
14.32610362263492
 20
855.1384762845503
 30
0.0000000000000426
 10
14.4408759134361
 20
855.6790440621062
 30
0.0000000000000426
 10
14.5912265037002
 20
856.2061663381143
 30
0.0000000000000426
 10
14.78068451676666
 20
856.705306958864
 30
0.0000000000000426
 10
14.9686659961891
 20
857.2009209030175
 30
0.0000000000000426
 10
15.19556458914579
 20
857.6694485942276
 30
0.0000000000000426
 10
15.46297887287211
 20
858.0925044850849
 30
0.0000000000000426
 10
15.72737486913694
 20
858.5112407909223
 30
0.0000000000000426
 10
16.03156525925313
 20
858.8852051147302
 30
0.0000000000000426
 10
16.3679947590069
 20
859.191531855751
 30
0.0000000000000568
 10
16.70205567254295
 20
859.4961594088198
 30
0.0000000000000426
 10
17.09677160350516
 20
859.7605838118186
 30
0.0000000000000426
 10
17.53098696561001
 20
859.9788940157017
 30
0.0000000000000426
 10
17.96477351310104
 20
860.1972164960297
 30
0.0000000000000426
 10
18.43997827860115
 20
860.370545792935
 30
0.0000000000000568
 10
18.94225601114468
 20
860.5047090866041
 30
0.0000000000000426
 10
19.44470460910067
 20
860.6390585559901
 30
0.0000000000000568
 10
19.97300857736253
 20
860.7339641631784
 30
0.0000000000000568
 10
20.5148844052122
 20
860.7973701882727
 30
0.0000000000000568
 10
21.57734148379782
 20
860.9223853729268
 30
0.0000000000000426
 10
22.70010421692137
 20
860.9254238457847
 30
0.0000000000000426
 10
23.86935467465095
 20
860.9071368286899
 30
0.0000000000000426
  0
SPLINE
  5
7E
330
1F
100
AcDbEntity
  8
owl_86_48_cutting_plan_sheet2
100
AcDbSpline
210
0.0
220
0.0
230
1.0
 70
     8
 71
     2
 72
     6
 73
     3
 74
     0
 42
0.000000001
 43
0.0000000001
 40
95.52076427941367
 40
95.52076427941367
 40
95.52076427941367
 40
96.52076427941367
 40
96.52076427941367
 40
96.52076427941367
 10
23.86935467465095
 20
860.9071368286899
 30
0.0000000000000426
 10
23.89207203492151
 20
860.9067815303422
 30
0.0000000000000568
 10
23.91478939941848
 20
860.907136828527
 30
0.0000000000000426
  0
SPLINE
  5
7F
330
1F
100
AcDbEntity
  8
owl_86_48_cutting_plan_sheet2
100
AcDbSpline
210
0.0
220
0.0
230
1.0
 70
     8
 71
     3
 72
    29
 73
    25
 74
     0
 42
0.000000001
 43
0.0000000001
 40
96.52076427941367
 40
96.52076427941367
 40
96.52076427941367
 40
96.52076427941367
 40
100.080618153321
 40
100.080618153321
 40
100.080618153321
 40
101.9001357483968
 40
101.9001357483968
 40
101.9001357483968
 40
103.719435475119
 40
103.719435475119
 40
103.719435475119
 40
105.5433456787863
 40
105.5433456787863
 40
105.5433456787863
 40
107.3793001757261
 40
107.3793001757261
 40
107.3793001757261
 40
109.2321830127625
 40
109.2321830127625
 40
109.2321830127625
 40
111.0971551297887
 40
111.0971551297887
 40
111.0971551297887
 40
114.8203866402086
 40
114.8203866402086
 40
114.8203866402086
 40
114.8203866402086
 10
23.91478939941848
 20
860.907136828527
 30
0.0000000000000426
 10
25.08404118445065
 20
860.9254238545947
 30
0.0000000000000426
 10
26.2068054156576
 20
860.9223853435559
 30
0.0000000000000426
 10
27.26926407793478
 20
860.7973701587039
 30
0.0000000000000426
 10
27.81114087190525
 20
860.7339641129907
 30
0.0000000000000426
 10
28.33944578727495
 20
860.6390584746131
 30
0.0000000000000426
 10
28.8418954382509
 20
860.5047089350874
 30
0.0000000000000426
 10
29.34417443731182
 20
860.3705455076525
 30
0.0000000000000568
 10
29.81938039337237
 20
860.197216073417
 30
0.0000000000000426
 10
30.2531688146061
 20
859.978893264061
 30
0.0000000000000426
 10
30.6873863969977
 20
859.7605825490483
 30
0.0000000000000426
 10
31.08210491285362
 20
859.4961574638127
 30
0.0000000000000568
 10
31.41616867334307
 20
859.1915290295779
 30
0.0000000000000426
 10
31.75260108994716
 20
858.8852013494621
 30
0.0000000000000426
 10
32.05679445443359
 20
858.5112361989899
 30
0.0000000000000426
 10
32.32119309310215
 20
858.0924994179117
 30
0.0000000000000568
 10
32.58860986391602
 20
857.669443332686
 30
0.0000000000000568
 10
32.81551103701585
 20
857.2009152689643
 30
0.0000000000000284
 10
33.0034954577529
 20
856.7053004792745
 30
0.0000000000000426
 10
33.1929563061159
 20
856.2061593372938
 30
0.0000000000000426
 10
33.34331000526034
 20
855.6790364813858
 30
0.0000000000000426
 10
33.45808565878289
 20
855.1384679619392
 30
0.0000000000000426
 10
33.68704474707113
 20
854.0623797200487
 30
0.0000000000000426
 10
33.77869698059246
 20
852.9095914328285
 30
0.0000000000000426
 10
33.78419180089581
 20
851.75
 30
0.0000000000000426
  0
CIRCLE
  5
80
330
1F
100
AcDbEntity
  8
owl_86_48_cutting_plan_sheet2
100
AcDbCircle
 10
93.48420088959952
 20
854.3236147477446
 30
0.0000000000000284
 40
0.125
  0
CIRCLE
  5
81
330
1F
100
AcDbEntity
  8
owl_86_48_cutting_plan_sheet2
100
AcDbCircle
 10
93.18420088959954
 20
853.8236147477446
 30
0.0000000000000426
 40
0.125
  0
CIRCLE
  5
82
330
1F
100
AcDbEntity
  8
owl_86_48_cutting_plan_sheet2
100
AcDbCircle
 10
72.3000178100209
 20
854.3236147477446
 30
0.0000000000000426
 40
0.125
  0
CIRCLE
  5
83
330
1F
100
AcDbEntity
  8
owl_86_48_cutting_plan_sheet2
100
AcDbCircle
 10
72.6000178100209
 20
853.8236147477446
 30
0.0000000000000426
 40
0.125
  0
CIRCLE
  5
84
330
1F
100
AcDbEntity
  8
owl_86_48_cutting_plan_sheet2
100
AcDbCircle
 10
92.93358902219646
 20
851.8886211311781
 30
0.0000000000000426
 40
0.125
  0
CIRCLE
  5
85
330
1F
100
AcDbEntity
  8
owl_86_48_cutting_plan_sheet2
100
AcDbCircle
 10
92.21225409238957
 20
849.2471534301416
 30
0.0000000000000426
 40
0.125
  0
CIRCLE
  5
86
330
1F
100
AcDbEntity
  8
owl_86_48_cutting_plan_sheet2
100
AcDbCircle
 10
90.70773760501757
 20
846.9750078256001
 30
0.0000000000000568
 40
0.125
  0
CIRCLE
  5
87
330
1F
100
AcDbEntity
  8
owl_86_48_cutting_plan_sheet2
100
AcDbCircle
 10
88.33149172666783
 20
845.6472429764233
 30
0.0000000000000568
 40
0.125
  0
CIRCLE
  5
88
330
1F
100
AcDbEntity
  8
owl_86_48_cutting_plan_sheet2
100
AcDbCircle
 10
85.63567627502198
 20
845.1649465258466
 30
0.0000000000000142
 40
0.125
  0
CIRCLE
  5
89
330
1F
100
AcDbEntity
  8
owl_86_48_cutting_plan_sheet2
100
AcDbCircle
 10
82.89212680343468
 20
845.1166532464051
 30
0.0000000000000426
 40
0.125
  0
CIRCLE
  5
8A
330
1F
100
AcDbEntity
  8
owl_86_48_cutting_plan_sheet2
100
AcDbCircle
 10
80.14857711556778
 20
845.1649484022546
 30
0.0000000000000426
 40
0.125
  0
CIRCLE
  5
8B
330
1F
100
AcDbEntity
  8
owl_86_48_cutting_plan_sheet2
100
AcDbCircle
 10
77.45276249620854
 20
845.647249460234
 30
0.0000000000000711
 40
0.125
  0
CIRCLE
  5
8C
330
1F
100
AcDbEntity
  8
owl_86_48_cutting_plan_sheet2
100
AcDbCircle
 10
75.076517913225
 20
846.9750172371132
 30
0.0000000000000426
 40
0.125
  0
CIRCLE
  5
8D
330
1F
100
AcDbEntity
  8
owl_86_48_cutting_plan_sheet2
100
AcDbCircle
 10
73.5719942735322
 20
849.2471584816371
 30
0.0000000000000426
 40
0.125
  0
CIRCLE
  5
8E
330
1F
100
AcDbEntity
  8
owl_86_48_cutting_plan_sheet2
100
AcDbCircle
 10
72.85064478606142
 20
851.8886222816664
 30
0.0
 40
0.125
  0
LINE
  5
8F
330
1F
100
AcDbEntity
  8
owl_86_48_cutting_plan_sheet2
100
AcDbLine
 10
93.7842186710397
 20
854.6236146968333
 30
0.0000000000000426
 11
72.0
 21
854.623614696713
 31
0.0000000000000568
  0
SPLINE
  5
90
330
1F
100
AcDbEntity
  8
owl_86_48_cutting_plan_sheet2
100
AcDbSpline
210
0.0
220
0.0
230
1.0
 70
     8
 71
     3
 72
    29
 73
    25
 74
     0
 42
0.000000001
 43
0.0000000001
 40
21.7842186710397
 40
21.7842186710397
 40
21.7842186710397
 40
21.7842186710397
 40
25.5150173042808
 40
25.5150173042808
 40
25.5150173042808
 40
27.37998942130695
 40
27.37998942130695
 40
27.37998942130695
 40
29.23287225834338
 40
29.23287225834338
 40
29.23287225834338
 40
31.0688267552832
 40
31.0688267552832
 40
31.0688267552832
 40
32.89273695895046
 40
32.89273695895046
 40
32.89273695895046
 40
34.71203668567272
 40
34.71203668567272
 40
34.71203668567272
 40
36.53155428074847
 40
36.53155428074847
 40
36.53155428074847
 40
40.09140815465584
 40
40.09140815465584
 40
40.09140815465584
 40
40.09140815465584
 10
72.0
 20
854.623614696713
 30
0.0000000000000568
 10
72.00559868924084
 20
853.4154517098134
 30
0.0000000000000284
 10
72.10007610359118
 20
852.193750599148
 30
0.0000000000000568
 10
72.34794945603477
 20
851.0273782131409
 30
0.0000000000000426
 10
72.4721137874762
 20
850.4427428169204
 30
0.0000000000000426
 10
72.63585234478585
 20
849.8666688856451
 30
0.0000000000000568
 10
72.84576985999026
 20
849.3135289853423
 30
0.0000000000000426
 10
73.05410422905153
 20
848.7644396027075
 30
0.0000000000000284
 10
73.30895052886345
 20
848.2354491982371
 30
0.0000000000000426
 10
73.61762909654715
 20
847.746967254952
 30
0.0000000000000284
 10
73.92281053812694
 20
847.2638676909272
 30
0.0000000000000426
 10
74.2814426396809
 20
846.8192668766412
 30
0.0000000000000426
 10
74.69448296156853
 20
846.4429545263948
 30
0.0000000000000568
 10
75.10480274281895
 20
846.0689682784548
 30
0.0000000000000426
 10
75.57614352739287
 20
845.7556435424308
 30
0.0000000000000426
 10
76.08164964422848
 20
845.5013881563407
 30
0.0000000000000426
 10
76.58707078926768
 20
845.2470995204742
 30
0.0000000000000426
 10
77.1269383302594
 20
845.0517043359677
 30
0.0000000000000568
 10
77.6841118799678
 20
844.902815878343
 30
0.0000000000000426
 10
78.24165820036548
 20
844.7537809566553
 30
0.0000000000000426
 10
78.81724555823772
 20
844.651100216277
 30
0.0000000000000426
 10
79.39863563216723
 20
844.5830320289903
 30
0.0000000000000426
 10
80.53865201201202
 20
844.4493291782975
 30
0.0000000000000426
 10
81.70544768445637
 20
844.4485406245134
 30
0.0000000000000426
 10
82.88456863056406
 20
844.4665926098634
 30
0.0000000000000426
  0
SPLINE
  5
91
330
1F
100
AcDbEntity
  8
owl_86_48_cutting_plan_sheet2
100
AcDbSpline
210
0.0
220
0.0
230
1.0
 70
     8
 71
     2
 72
     6
 73
     3
 74
     0
 42
0.000000001
 43
0.0000000001
 40
40.09140815465584
 40
40.09140815465584
 40
40.09140815465584
 40
41.09140815465584
 40
41.09140815465584
 40
41.09140815465584
 10
82.88456863056406
 20
844.4665926098634
 30
0.0000000000000426
 10
82.89214108493101
 20
844.4667085418513
 30
0.0000000000000426
 10
82.89971353881941
 20
844.4665926098091
 30
0.0000000000000568
  0
SPLINE
  5
92
330
1F
100
AcDbEntity
  8
owl_86_48_cutting_plan_sheet2
100
AcDbSpline
210
0.0
220
0.0
230
1.0
 70
     8
 71
     3
 72
    29
 73
    25
 74
     0
 42
0.000000001
 43
0.0000000001
 40
41.09140815465584
 40
41.09140815465584
 40
41.09140815465584
 40
41.09140815465584
 40
44.65125789688064
 40
44.65125789688064
 40
44.65125789688064
 40
46.47077289039768
 40
46.47077289039768
 40
46.47077289039768
 40
48.29006946395823
 40
48.29006946395823
 40
48.29006946395823
 40
50.11397477780334
 40
50.11397477780334
 40
50.11397477780334
 40
51.9499239720992
 40
51.9499239720992
 40
51.9499239720992
 40
53.80280296304556
 40
53.80280296304556
 40
53.80280296304556
 40
55.66777233462513
 40
55.66777233462513
 40
55.66777233462513
 40
59.39856882275619
 40
59.39856882275619
 40
59.39856882275619
 40
59.39856882275619
 10
82.89971353881941
 20
844.4665926098091
 30
0.0000000000000568
 10
84.07883313076424
 20
844.4485406355981
 30
0.0000000000000568
 10
85.24562736817062
 20
844.4493291408218
 30
0.0000000000000568
 10
86.38564230363733
 20
844.583032019134
 30
0.0000000000000426
 10
86.96703146332351
 20
844.6511001990481
 30
0.0000000000000426
 10
87.5426179381649
 20
844.7537809286307
 30
0.0000000000000426
 10
88.10016329919682
 20
844.9028158278375
 30
0.0000000000000568
 10
88.65733565059136
 20
845.0517041967964
 30
0.0000000000000426
 10
89.19720217641725
 20
845.2470993154218
 30
0.0000000000000568
 10
89.70262182228197
 20
845.5013879057939
 30
0.0000000000000568
 10
90.20812602717113
 20
845.7556430360719
 30
0.0000000000000568
 10
90.67946464779219
 20
846.0689675171712
 30
0.0000000000000426
 10
91.08978192422832
 20
846.4429535843371
 30
0.0000000000000426
 10
91.50281966351203
 20
846.819265694728
 30
0.0000000000000284
 10
91.86144875419913
 20
847.2638662739257
 30
0.0000000000000426
 10
92.16662732250565
 20
847.7469655658942
 30
0.0000000000000426
 10
92.47530319897625
 20
848.2354475718465
 30
0.0000000000000568
 10
92.73014675346319
 20
848.7644378767982
 30
0.0000000000000568
 10
92.9384780553107
 20
849.3135268254791
 30
0.0000000000000426
 10
93.14839261971719
 20
849.8666666536244
 30
0.0000000000000426
 10
93.31212790370422
 20
850.4427404077001
 30
0.0000000000000426
 10
93.43628869165583
 20
851.0273754389372
 30
0.0000000000000568
 10
93.68415521782114
 20
852.1937481928456
 30
0.0000000000000284
 10
93.77862441024068
 20
853.4154496552261
 30
0.0000000000000284
 10
93.7842186710397
 20
854.6236146968333
 30
0.0000000000000426
  0
POLYLINE
  5
93
330
1F
100
AcDbEntity
  8
owl_86_48_cutting_plan_sheet2
100
AcDb2dPolyline
 66
     1
 10
0.0
 20
0.0
 30
0.0321002256689411
  0
VERTEX
  5
94
330
93
100
AcDbEntity
  8
owl_86_48_cutting_plan_sheet2
100
AcDbVertex
100
AcDb2dVertex
 10
78.8921470018621
 20
846.4542657709305
 30
0.0321002256689411
  0
VERTEX
  5
95
330
93
100
AcDbEntity
  8
owl_86_48_cutting_plan_sheet2
100
AcDbVertex
100
AcDb2dVertex
 10
86.8921470018621
 20
846.4542657709305
 30
0.0321002256689411
  0
VERTEX
  5
96
330
93
100
AcDbEntity
  8
owl_86_48_cutting_plan_sheet2
100
AcDbVertex
100
AcDb2dVertex
 10
86.8921470018621
 20
846.8292657709305
 30
0.0321002256689411
  0
VERTEX
  5
97
330
93
100
AcDbEntity
  8
owl_86_48_cutting_plan_sheet2
100
AcDbVertex
100
AcDb2dVertex
 10
78.89214700186209
 20
846.8292657709305
 30
0.0321002256689411
  0
VERTEX
  5
98
330
93
100
AcDbEntity
  8
owl_86_48_cutting_plan_sheet2
100
AcDbVertex
100
AcDb2dVertex
 10
78.8921470018621
 20
846.4542657709305
 30
0.0321002256689411
  0
SEQEND
  5
99
330
93
100
AcDbEntity
  8
owl_86_48_cutting_plan_sheet2
  0
CIRCLE
  5
9A
330
1F
100
AcDbEntity
  8
owl_86_48_cutting_plan_sheet2
100
AcDbCircle
 10
6.809883615871723
 20
851.0457509898519
 30
0.0000000000000036
 40
0.125
  0
CIRCLE
  5
9B
330
1F
100
AcDbEntity
  8
owl_86_48_cutting_plan_sheet2
100
AcDbCircle
 10
7.109883615871713
 20
851.5457509898519
 30
0.0000000000000027
 40
0.125
  0
CIRCLE
  5
9C
330
1F
100
AcDbEntity
  8
owl_86_48_cutting_plan_sheet2
100
AcDbCircle
 10
41.73754898087351
 20
851.0457524372118
 30
0.0000000000000018
 40
0.125
  0
CIRCLE
  5
9D
330
1F
100
AcDbEntity
  8
owl_86_48_cutting_plan_sheet2
100
AcDbCircle
 10
41.4375489808735
 20
851.5457524372118
 30
0.0000000000000018
 40
0.125
  0
CIRCLE
  5
9E
330
1F
100
AcDbEntity
  8
owl_86_48_cutting_plan_sheet2
100
AcDbCircle
 10
7.529274069798131
 20
854.97094824595
 30
0.0000000000000044
 40
0.125
  0
CIRCLE
  5
9F
330
1F
100
AcDbEntity
  8
owl_86_48_cutting_plan_sheet2
100
AcDbCircle
 10
9.060132133320504
 20
858.9184327391646
 30
0.0000000000000053
 40
0.125
  0
CIRCLE
  5
A0
330
1F
100
AcDbEntity
  8
owl_86_48_cutting_plan_sheet2
100
AcDbCircle
 10
11.89658781405062
 20
862.0437392875752
 30
0.0000000000000027
 40
0.125
  0
CIRCLE
  5
A1
330
1F
100
AcDbEntity
  8
owl_86_48_cutting_plan_sheet2
100
AcDbCircle
 10
15.80445078204157
 20
863.6491247762032
 30
0.0000000000000036
 40
0.125
  0
CIRCLE
  5
A2
330
1F
100
AcDbEntity
  8
owl_86_48_cutting_plan_sheet2
100
AcDbCircle
 10
20.02236458035938
 20
864.146118820957
 30
0.0000000000000009
 40
0.125
  0
CIRCLE
  5
A3
330
1F
100
AcDbEntity
  8
owl_86_48_cutting_plan_sheet2
100
AcDbCircle
 10
24.27372954669494
 20
864.2042382148807
 30
0.0000000000000009
 40
0.125
  0
CIRCLE
  5
A4
330
1F
100
AcDbEntity
  8
owl_86_48_cutting_plan_sheet2
100
AcDbCircle
 10
28.52509448456484
 20
864.1461223012857
 30
0.0000000000000009
 40
0.125
  0
CIRCLE
  5
A5
330
1F
100
AcDbEntity
  8
owl_86_48_cutting_plan_sheet2
100
AcDbCircle
 10
32.74300877182682
 20
863.6491299975811
 30
0.0000000000000044
 40
0.125
  0
CIRCLE
  5
A6
330
1F
100
AcDbEntity
  8
owl_86_48_cutting_plan_sheet2
100
AcDbCircle
 10
36.65087373885272
 20
862.0437495514102
 30
0.0000000000000009
 40
0.125
  0
CIRCLE
  5
A7
330
1F
100
AcDbEntity
  8
owl_86_48_cutting_plan_sheet2
100
AcDbCircle
 10
39.48732569649928
 20
858.9184405587127
 30
0.0000000000000018
 40
0.125
  0
CIRCLE
  5
A8
330
1F
100
AcDbEntity
  8
owl_86_48_cutting_plan_sheet2
100
AcDbCircle
 10
41.01817075096577
 20
854.9709512348661
 30
0.0
 40
0.125
  0
LINE
  5
A9
330
1F
100
AcDbEntity
  8
owl_86_48_cutting_plan_sheet2
100
AcDbLine
 10
41.03613155281295
 20
850.7083333334522
 30
0.0000000000000018
 11
42.53694004168557
 21
850.7083333334573
 31
0.0004085321614413
  0
SPLINE
  5
AA
330
1F
100
AcDbEntity
  8
owl_86_48_cutting_plan_sheet2
100
AcDbSpline
 70
     0
 71
     3
 72
    53
 73
    49
 74
     0
 42
0.000000001
 43
0.0000000001
 40
56.37513563589199
 40
56.37513563589199
 40
56.37513563589199
 40
56.37513563589199
 40
61.97599609044755
 40
61.97599609044755
 40
61.97599609044755
 40
64.76377231610626
 40
64.76377231610626
 40
64.76377231610626
 40
67.53155151675517
 40
67.53155151675517
 40
67.53155151675517
 40
70.27422967737735
 40
70.27422967737735
 40
70.27422967737735
 40
72.99092035434434
 40
72.99092035434434
 40
72.99092035434434
 40
75.6972507549557
 40
75.6972507549557
 40
75.6972507549557
 40
78.39982797828515
 40
78.39982797828515
 40
78.39982797828515
 40
83.78564247399929
 40
83.78564247399929
 40
83.78564247399929
 40
89.17146868009948
 40
89.17146868009948
 40
89.17146868009948
 40
91.87404719367089
 40
91.87404719367089
 40
91.87404719367089
 40
94.58038024517661
 40
94.58038024517661
 40
94.58038024517661
 40
97.29707523458863
 40
97.29707523458863
 40
97.29707523458863
 40
100.03975870628
 40
100.03975870628
 40
100.03975870628
 40
102.8075428866897
 40
102.8075428866897
 40
102.8075428866897
 40
105.5953228569726
 40
105.5953228569726
 40
105.5953228569726
 40
111.1961859837454
 40
111.1961859837454
 40
111.1961859837454
 40
111.1961859837454
 10
42.53694004168557
 20
850.7083333334573
 30
0.0004085321614413
 10
42.59714459288
 20
852.5576179506643
 30
0.0000000000000018
 10
42.40070883383198
 20
854.4475764709521
 30
0.0000000000000018
 10
41.88503850775734
 20
856.2268094436934
 30
0.0000000000000009
 10
41.62710169538451
 20
857.1167766538506
 30
0.0000000000000009
 10
41.28704347919935
 20
857.9868711992775
 30
0.0000000000000009
 10
40.86186529356475
 20
858.8106116316163
 30
0.0000000000000009
 10
40.43969357934991
 20
859.6285273247028
 30
0.0000000000000027
 10
39.93213210758364
 20
860.403531515255
 30
0.0000000000000018
 10
39.34087389303548
 20
861.1095800276548
 30
0.0000000000000027
 10
38.75623496858323
 20
861.8077241426013
 30
0.0000000000000018
 10
38.08804059199744
 20
862.4404391297576
 30
0.0000000000000027
 10
37.34154452157937
 20
862.9640862598509
 30
0.0000000000000018
 10
36.60104810851658
 20
863.4835247899526
 30
0.0000000000000027
 10
35.78885402863312
 20
863.8918544983575
 30
0.0
 10
34.94248110071412
 20
864.2069173243265
 30
0.0000000000000009
 10
34.09766117770504
 20
864.5214020432937
 30
0.0000000000000009
 10
33.22050023388135
 20
864.7423162347424
 30
0.0000000000000027
 10
32.33466191142124
 20
864.9031651962134
 30
0.0000000000000027
 10
31.44895228880978
 20
865.0639907885927
 30
0.0000000000000027
 10
30.55200284572436
 20
865.1652239655898
 30
0.0
 10
29.65468976167154
 20
865.2312728919225
 30
0.0000000000000018
 10
27.86070292741936
 20
865.3633236848543
 30
0.0000000000000009
 10
26.07076876124779
 20
865.3549309353675
 30
0.0000000000000018
 10
24.27374847154207
 20
865.3542378777665
 30
0.0000000000000027
 10
22.47672534177135
 20
865.3549309309092
 30
0.0000000000000018
 10
20.686785153753
 20
865.3633238554812
 30
0.0000000000000018
 10
18.89279547663462
 20
865.2312728919225
 30
0.0000000000000018
 10
17.99548192165586
 20
865.1652239502475
 30
0.0000000000000027
 10
17.09853212746706
 20
865.0639907600464
 30
0.0000000000000018
 10
16.21282202291059
 20
864.9031651962134
 30
0.0000000000000009
 10
15.3269827581045
 20
864.7423161797068
 30
0.0
 10
14.44982101267668
 20
864.5214019588909
 30
0.0000000000000009
 10
13.60500006657093
 20
864.2069173243265
 30
0.0000000000000009
 10
12.75862561956086
 20
863.8918543989815
 30
0.0000000000000018
 10
11.94642998154507
 20
863.4835246480468
 30
0.0000000000000018
 10
11.20593170641328
 20
862.9640862598509
 30
0.0000000000000036
 10
10.45943352731699
 20
862.4404391104069
 30
0.0000000000000018
 10
9.791236639426163
 20
861.8077241135381
 30
0.0000000000000018
 10
9.206594964729081
 20
861.1095800276548
 30
0.0000000000000009
 10
8.615334042744859
 20
860.4035316329504
 30
0.0
 10
8.107769467384212
 20
859.6285274700234
 30
0.0000000000000036
 10
7.685594427578391
 20
858.8106116316163
 30
0.0000000000000018
 10
7.260413084126935
 20
857.9868714238484
 30
0.0000000000000036
 10
6.920351369460345
 20
857.1167769139531
 30
0.0000000000000027
 10
6.662410944770233
 20
856.2268094436934
 30
0.0000000000000027
 10
6.146733846600302
 20
854.4475775025171
 30
0.0000000000000027
 10
5.950290246483139
 20
852.557619217041
 30
0.0000000000000018
 10
6.010492507944857
 20
850.7083333333334
 30
0.0004085321335321
  0
LINE
  5
AB
330
1F
100
AcDbEntity
  8
owl_86_48_cutting_plan_sheet2
100
AcDbLine
 10
6.010492507944857
 20
850.7083333333334
 30
0.0004085321335321
 11
7.511300934413907
 21
850.7083333333384
 31
0.0000000000000018
  0
LINE
  5
AC
330
1F
100
AcDbEntity
  8
owl_86_48_cutting_plan_sheet2
100
AcDbLine
 10
7.511300934413907
 20
850.7083333333384
 30
0.0000000000000018
 11
7.50969830089252
 21
850.7571389722706
 31
0.0000000000000018
  0
SPLINE
  5
AD
330
1F
100
AcDbEntity
  8
owl_86_48_cutting_plan_sheet2
100
AcDbSpline
210
0.0
220
0.0
230
1.0
 70
     8
 71
     3
 72
    53
 73
    49
 74
     0
 42
0.000000001
 43
0.0000000001
 40
112.7502692243436
 40
112.7502692243436
 40
112.7502692243436
 40
112.7502692243436
 40
118.3511323511163
 40
118.3511323511163
 40
118.3511323511163
 40
121.1389123213993
 40
121.1389123213993
 40
121.1389123213993
 40
123.9066965018089
 40
123.9066965018089
 40
123.9066965018089
 40
126.6493799735003
 40
126.6493799735003
 40
126.6493799735003
 40
129.3660749629124
 40
129.3660749629124
 40
129.3660749629124
 40
132.0724080144181
 40
132.0724080144181
 40
132.0724080144181
 40
134.7749865279895
 40
134.7749865279895
 40
134.7749865279895
 40
140.1608127340897
 40
140.1608127340897
 40
140.1608127340897
 40
145.5466272298038
 40
145.5466272298038
 40
145.5466272298038
 40
148.2492044531333
 40
148.2492044531333
 40
148.2492044531333
 40
150.9555348537446
 40
150.9555348537446
 40
150.9555348537446
 40
153.6722255307116
 40
153.6722255307116
 40
153.6722255307116
 40
156.4149036913338
 40
156.4149036913338
 40
156.4149036913338
 40
159.1826828919827
 40
159.1826828919827
 40
159.1826828919827
 40
161.9704591176414
 40
161.9704591176414
 40
161.9704591176414
 40
167.571319572197
 40
167.571319572197
 40
167.571319572197
 40
167.571319572197
 10
7.50969830089252
 20
850.7571389722706
 30
0.0000000000000018
 10
7.453535800151538
 20
852.4674780461269
 30
0.0000000000000027
 10
7.637669317180499
 20
854.2054605640843
 30
0.0000000000000018
 10
8.103119653250818
 20
855.8092469725485
 30
0.0000000000000027
 10
8.335663518764722
 20
856.6117806151536
 30
0.0000000000000027
 10
8.641239391243804
 20
857.3918310072095
 30
0.0000000000000018
 10
9.01850885503239
 20
858.1226151715354
 30
0.0000000000000027
 10
9.393062716714386
 20
858.84835983935
 30
0.0000000000000027
 10
9.840962263231479
 20
859.5308513115014
 30
0.0000000000000027
 10
10.35661069650126
 20
860.14653079907
 30
0.0000000000000027
 10
10.86651431246622
 20
860.7556152978868
 30
0.0000000000000027
 10
11.44148450069075
 20
861.2972576672729
 30
0.0000000000000027
 10
12.06733750253774
 20
861.7360878663657
 30
0.0000000000000018
 10
12.68792979125694
 20
862.1715520431538
 30
0.0000000000000018
 10
13.38472176958047
 20
862.5244504803617
 30
0.0000000000000036
 10
14.12829451894659
 20
862.8011567059733
 30
0.0000000000000027
 10
14.87002256064365
 20
863.077394124781
 30
0.0000000000000027
 10
15.66110087580032
 20
863.2785670544117
 30
0.0000000000000027
 10
16.48080719212202
 20
863.4272980107653
 30
0.0000000000000027
 10
17.30019660443874
 20
863.5761336712706
 30
0.0000000000000027
 10
18.14449396664056
 20
863.6721831868487
 30
0.0000000000000027
 10
19.00290871985286
 20
863.7353199937107
 30
0.0000000000000036
 10
20.7195894330996
 20
863.8620194548023
 30
0.0000000000000036
 10
22.47077188330067
 20
863.8553051201493
 30
0.0000000000000018
 10
24.27432697715439
 20
863.8542379893228
 30
0.0000000000000018
 10
26.07575799221098
 20
863.8553051215576
 30
0.0000000000000027
 10
27.82828411782062
 20
863.8620192917138
 30
0.0000000000000018
 10
29.54457648641582
 20
863.735319996069
 30
0.0000000000000018
 10
30.40299075519441
 20
863.6721832069641
 30
0.0000000000000027
 10
31.24728772762494
 20
863.5761337071149
 30
0.0000000000000018
 10
32.06667655499437
 20
863.4272980447594
 30
0.0000000000000027
 10
32.88638186190896
 20
863.2785671664386
 30
0.0000000000000018
 10
33.67745922844998
 20
863.0773943045039
 30
0.0000000000000027
 10
34.41918596839227
 20
862.8011569590832
 30
0.0000000000000027
 10
35.16275698585403
 20
862.5244509704047
 30
0.0000000000000027
 10
35.8595470637878
 20
862.1715528196788
 30
0.0000000000000036
 10
36.48013711597973
 20
861.7360889953677
 30
0.0000000000000027
 10
37.10598767076188
 20
861.2972592882994
 30
0.0000000000000027
 10
37.68095513068495
 20
860.755617487736
 30
0.0000000000000018
 10
38.19085591155415
 20
860.1465334855445
 30
0.0000000000000036
 10
38.70650153936718
 20
859.5308544262928
 30
0.0000000000000036
 10
39.15439802701914
 20
858.848363446025
 30
0.0000000000000027
 10
39.52894870707287
 20
858.1226193544401
 30
0.0000000000000027
 10
39.90621513677407
 20
857.3918354429093
 30
0.0000000000000027
 10
40.21178774155186
 20
856.611785384122
 30
0.0000000000000027
 10
40.44432826839528
 20
855.8092522545601
 30
0.0000000000000018
 10
40.90977235455728
 20
854.2054654914772
 30
0.0000000000000018
 10
41.09389903185911
 20
852.4674815426554
 30
0.0000000000000027
 10
41.03773431019167
 20
850.7571408600937
 30
0.0000000000000018
  0
LINE
  5
AE
330
1F
100
AcDbEntity
  8
owl_86_48_cutting_plan_sheet2
100
AcDbLine
 10
41.03773431019167
 20
850.7571408600937
 30
0.0000000000000018
 11
41.03613155281295
 21
850.7083333334522
 31
0.0000000000000018
  0
CIRCLE
  5
AF
330
1F
100
AcDbEntity
  8
owl_86_48_cutting_plan_sheet2
100
AcDbCircle
 10
51.80991095152819
 20
856.2540843231835
 30
0.0000000000000036
 40
0.125
  0
CIRCLE
  5
B0
330
1F
100
AcDbEntity
  8
owl_86_48_cutting_plan_sheet2
100
AcDbCircle
 10
52.10991095152818
 20
856.7540843231835
 30
0.0000000000000027
 40
0.125
  0
CIRCLE
  5
B1
330
1F
100
AcDbEntity
  8
owl_86_48_cutting_plan_sheet2
100
AcDbCircle
 10
86.73757631652998
 20
856.2540857705435
 30
0.0000000000000018
 40
0.125
  0
CIRCLE
  5
B2
330
1F
100
AcDbEntity
  8
owl_86_48_cutting_plan_sheet2
100
AcDbCircle
 10
86.43757631652997
 20
856.7540857705435
 30
0.0000000000000018
 40
0.125
  0
CIRCLE
  5
B3
330
1F
100
AcDbEntity
  8
owl_86_48_cutting_plan_sheet2
100
AcDbCircle
 10
52.5293014054546
 20
860.1792815792817
 30
0.0000000000000044
 40
0.125
  0
CIRCLE
  5
B4
330
1F
100
AcDbEntity
  8
owl_86_48_cutting_plan_sheet2
100
AcDbCircle
 10
54.06015946897697
 20
864.1267660724963
 30
0.0000000000000053
 40
0.125
  0
CIRCLE
  5
B5
330
1F
100
AcDbEntity
  8
owl_86_48_cutting_plan_sheet2
100
AcDbCircle
 10
56.89661514970708
 20
867.2520726209069
 30
0.0000000000000027
 40
0.125
  0
CIRCLE
  5
B6
330
1F
100
AcDbEntity
  8
owl_86_48_cutting_plan_sheet2
100
AcDbCircle
 10
60.80447811769804
 20
868.8574581095348
 30
0.0000000000000036
 40
0.125
  0
CIRCLE
  5
B7
330
1F
100
AcDbEntity
  8
owl_86_48_cutting_plan_sheet2
100
AcDbCircle
 10
65.02239191601585
 20
869.3544521542887
 30
0.0000000000000009
 40
0.125
  0
CIRCLE
  5
B8
330
1F
100
AcDbEntity
  8
owl_86_48_cutting_plan_sheet2
100
AcDbCircle
 10
69.2737568823514
 20
869.4125715482123
 30
0.0000000000000009
 40
0.125
  0
CIRCLE
  5
B9
330
1F
100
AcDbEntity
  8
owl_86_48_cutting_plan_sheet2
100
AcDbCircle
 10
73.5251218202213
 20
869.3544556346174
 30
0.0000000000000009
 40
0.125
  0
CIRCLE
  5
BA
330
1F
100
AcDbEntity
  8
owl_86_48_cutting_plan_sheet2
100
AcDbCircle
 10
77.74303610748329
 20
868.8574633309128
 30
0.0000000000000044
 40
0.125
  0
CIRCLE
  5
BB
330
1F
100
AcDbEntity
  8
owl_86_48_cutting_plan_sheet2
100
AcDbCircle
 10
81.65090107450919
 20
867.2520828847419
 30
0.0000000000000009
 40
0.125
  0
CIRCLE
  5
BC
330
1F
100
AcDbEntity
  8
owl_86_48_cutting_plan_sheet2
100
AcDbCircle
 10
84.48735303215575
 20
864.1267738920444
 30
0.0000000000000018
 40
0.125
  0
CIRCLE
  5
BD
330
1F
100
AcDbEntity
  8
owl_86_48_cutting_plan_sheet2
100
AcDbCircle
 10
86.01819808662223
 20
860.1792845681978
 30
0.0
 40
0.125
  0
LINE
  5
BE
330
1F
100
AcDbEntity
  8
owl_86_48_cutting_plan_sheet2
100
AcDbLine
 10
51.51078617394626
 20
855.9166666666666
 30
0.0000000000000018
 11
87.03670102639614
 21
855.9166666667873
 31
0.0000000000000018
  0
LINE
  5
BF
330
1F
100
AcDbEntity
  8
owl_86_48_cutting_plan_sheet2
100
AcDbLine
 10
87.03670102639614
 20
855.9166666667873
 30
0.0000000000000018
 11
87.03723213351103
 21
855.9329358423345
 31
0.0000000000000018
  0
SPLINE
  5
C0
330
1F
100
AcDbEntity
  8
owl_86_48_cutting_plan_sheet2
100
AcDbSpline
210
0.0
220
0.0
230
1.0
 70
     8
 71
     3
 72
    53
 73
    49
 74
     0
 42
0.000000001
 43
0.0000000001
 40
35.54276138591948
 40
35.54276138591948
 40
35.54276138591948
 40
35.54276138591948
 40
41.14362184047504
 40
41.14362184047504
 40
41.14362184047504
 40
43.93139806613375
 40
43.93139806613375
 40
43.93139806613375
 40
46.69917726678266
 40
46.69917726678266
 40
46.69917726678266
 40
49.44185542740485
 40
49.44185542740485
 40
49.44185542740485
 40
52.15854610437184
 40
52.15854610437184
 40
52.15854610437184
 40
54.8648765049832
 40
54.8648765049832
 40
54.8648765049832
 40
57.56745372831263
 40
57.56745372831263
 40
57.56745372831263
 40
62.95326822402679
 40
62.95326822402679
 40
62.95326822402679
 40
68.33909443012698
 40
68.33909443012698
 40
68.33909443012698
 40
71.04167294369837
 40
71.04167294369837
 40
71.04167294369837
 40
73.74800599520411
 40
73.74800599520411
 40
73.74800599520411
 40
76.46470098461612
 40
76.46470098461612
 40
76.46470098461612
 40
79.20738445630752
 40
79.20738445630752
 40
79.20738445630752
 40
81.97516863671716
 40
81.97516863671716
 40
81.97516863671716
 40
84.76294860700011
 40
84.76294860700011
 40
84.76294860700011
 40
90.36381173377285
 40
90.36381173377285
 40
90.36381173377285
 40
90.36381173377285
 10
87.03723213351103
 20
855.9329358423345
 30
0.0000000000000018
 10
87.0960900748646
 20
857.7359058146596
 30
0.0000000000000018
 10
86.90375734306207
 20
859.5752061444588
 30
0.0000000000000018
 10
86.40482909696004
 20
861.295957047314
 30
0.0000000000000027
 10
86.15535771309595
 20
862.1567795639394
 30
0.0000000000000027
 10
85.82679470071457
 20
862.9968592804864
 30
0.0000000000000027
 10
85.41758710039062
 20
863.7896142058893
 30
0.0000000000000018
 10
85.0112890642302
 20
864.5768060318085
 30
0.0000000000000018
 10
84.52361592049994
 20
865.3209724855993
 30
0.0000000000000036
 10
83.95756190153153
 20
865.9968978469497
 30
0.0000000000000018
 10
83.3978356916063
 20
866.6653552576445
 30
0.0000000000000027
 10
82.76071695390905
 20
867.2677125159366
 30
0.0000000000000027
 10
82.0544360553693
 20
867.7630871716882
 30
0.0000000000000027
 10
81.35390842926431
 20
868.2545341331931
 30
0.0000000000000036
 10
80.5801823500294
 20
868.6443866557047
 30
0.0000000000000018
 10
79.76807672559691
 20
868.9466638692437
 30
0.0000000000000018
 10
78.95762119694257
 20
869.2483994636954
 30
0.0000000000000018
 10
78.10915477888116
 20
869.4627332119728
 30
0.0000000000000018
 10
77.24536079493542
 20
869.6195428123937
 30
0.0000000000000027
 10
76.38175810407317
 20
869.7763717614317
 30
0.0000000000000027
 10
75.50235948453604
 20
869.8758770460462
 30
0.0000000000000018
 10
74.61801267224281
 20
869.9409552599697
 30
0.0000000000000018
 10
72.84992399320839
 20
870.0712222204725
 30
0.0000000000000027
 10
71.07245917389336
 20
870.0633889974293
 30
0.0000000000000027
 10
69.27396864240312
 20
870.0625712482837
 30
0.0000000000000027
 10
67.47476819127012
 20
870.0633889939876
 30
0.0000000000000036
 10
65.69774724919166
 20
870.0712223885865
 30
0.0000000000000027
 10
63.92952722669696
 20
869.9409552591836
 30
0.0000000000000027
 10
63.04517993897343
 20
869.8758770291129
 30
0.0000000000000018
 10
62.16578095544875
 20
869.776371730453
 30
0.0000000000000027
 10
61.30217774830423
 20
869.6195428010624
 30
0.0000000000000018
 10
60.43838279965841
 20
869.4627331379402
 30
0.0000000000000027
 10
59.58991553099001
 20
869.2483993475192
 30
0.0000000000000027
 10
58.77945888635242
 20
868.9466637848737
 30
0.0000000000000027
 10
57.96735167189094
 20
868.6443864261066
 30
0.0000000000000036
 10
57.19362392043842
 20
868.2545337797475
 30
0.0000000000000027
 10
56.49309430744504
 20
867.7630867953542
 30
0.0000000000000018
 10
55.78681118742974
 20
867.2677119626939
 30
0.0000000000000027
 10
55.1496898660976
 20
866.6653545083193
 30
0.0000000000000027
 10
54.58996087764248
 20
865.9968969514582
 30
0.0000000000000018
 10
54.02390411856367
 20
865.320971525799
 30
0.0000000000000018
 10
53.53622788615001
 20
864.576804926464
 30
0.0000000000000036
 10
53.12992657238646
 20
863.7896128115877
 30
0.0000000000000018
 10
52.72071585548854
 20
862.9968579516337
 30
0.0000000000000036
 10
52.3921494215513
 20
862.1567781476849
 30
0.0000000000000036
 10
52.14267451658694
 20
861.2959552866434
 30
0.0000000000000027
 10
51.64373967245128
 20
859.5752051897044
 30
0.0000000000000018
 10
51.45139943336129
 20
857.7359054934012
 30
0.0000000000000018
 10
51.5102551079173
 20
855.9329352129774
 30
0.0000000000000018
  0
LINE
  5
C1
330
1F
100
AcDbEntity
  8
owl_86_48_cutting_plan_sheet2
100
AcDbLine
 10
51.5102551079173
 20
855.9329352129774
 30
0.0000000000000018
 11
51.51078617394626
 21
855.9166666666666
 31
0.0000000000000018
  0
POLYLINE
  5
C2
330
1F
100
AcDbEntity
  8
owl_86_48_cutting_plan_sheet2
100
AcDb2dPolyline
 66
     1
 10
0.0
 20
0.0
 30
0.033566068196488
  0
VERTEX
  5
C3
330
C2
100
AcDbEntity
  8
owl_86_48_cutting_plan_sheet2
100
AcDbVertex
100
AcDb2dVertex
 10
73.26857549728851
 20
866.5550139911397
 30
0.033566068196488
  0
VERTEX
  5
C4
330
C2
100
AcDbEntity
  8
owl_86_48_cutting_plan_sheet2
100
AcDbVertex
100
AcDb2dVertex
 10
65.2685754972885
 20
866.5550139911397
 30
0.033566068196488
  0
VERTEX
  5
C5
330
C2
100
AcDbEntity
  8
owl_86_48_cutting_plan_sheet2
100
AcDbVertex
100
AcDb2dVertex
 10
65.26857549728851
 20
866.1800139911397
 30
0.033566068196488
  0
VERTEX
  5
C6
330
C2
100
AcDbEntity
  8
owl_86_48_cutting_plan_sheet2
100
AcDbVertex
100
AcDb2dVertex
 10
73.26857549728851
 20
866.1800139911397
 30
0.033566068196488
  0
VERTEX
  5
C7
330
C2
100
AcDbEntity
  8
owl_86_48_cutting_plan_sheet2
100
AcDbVertex
100
AcDb2dVertex
 10
73.26857549728851
 20
866.5550139911397
 30
0.033566068196488
  0
SEQEND
  5
C8
330
C2
100
AcDbEntity
  8
owl_86_48_cutting_plan_sheet2
  0
MTEXT
  5
C9
330
1F
100
AcDbEntity
  8
owl_86_48_cutting_plan_sheet2
100
AcDbMText
 10
69.97224318016015
 20
874.5507139543691
 30
0.0000000000000142
 40
0.4
 41
0.5493975903614459
 71
     1
 72
     1
  1
\fArial;1
 11
-1.0
 21
1.224646799147353E-16
 31
0.0
 73
     2
 44
0.9638554216867472
1001
ACAD
1000
ACAD_MTEXT_DEFINED_HEIGHT_BEGIN
1070
    46
1040
0.4024096385542169
1000
ACAD_MTEXT_DEFINED_HEIGHT_END
  0
CIRCLE
  5
CA
330
1F
100
AcDbEntity
  8
owl_86_48_cutting_plan_sheet2
100
AcDbCircle
 10
88.6098750430616
 20
863.6044691437922
 30
0.0000000000000142
 40
0.125
  0
CIRCLE
  5
CB
330
1F
100
AcDbEntity
  8
owl_86_48_cutting_plan_sheet2
100
AcDbCircle
 10
51.33411273084425
 20
863.6053831273786
 30
0.0000000000000142
 40
0.125
  0
CIRCLE
  5
CC
330
1F
100
AcDbEntity
  8
owl_86_48_cutting_plan_sheet2
100
AcDbCircle
 10
88.49192685632863
 20
866.3050277814004
 30
0.0000000000000142
 40
0.125
  0
CIRCLE
  5
CD
330
1F
100
AcDbEntity
  8
owl_86_48_cutting_plan_sheet2
100
AcDbCircle
 10
86.03562977149659
 20
869.901100711874
 30
0.0000000000000142
 40
0.125
  0
CIRCLE
  5
CE
330
1F
100
AcDbEntity
  8
owl_86_48_cutting_plan_sheet2
100
AcDbCircle
 10
82.63604520808235
 20
872.6270497867212
 30
0.0000000000000142
 40
0.125
  0
CIRCLE
  5
CF
330
1F
100
AcDbEntity
  8
owl_86_48_cutting_plan_sheet2
100
AcDbCircle
 10
78.61702757610738
 20
874.3190839878852
 30
0.0000000000000142
 40
0.125
  0
CIRCLE
  5
D0
330
1F
100
AcDbEntity
  8
owl_86_48_cutting_plan_sheet2
100
AcDbCircle
 10
74.32999123250795
 20
875.1553344642061
 30
0.0000000000000142
 40
0.125
  0
CIRCLE
  5
D1
330
1F
100
AcDbEntity
  8
owl_86_48_cutting_plan_sheet2
100
AcDbCircle
 10
69.97231159441537
 20
875.4990136468109
 30
0.0000000000000142
 40
0.125
  0
CIRCLE
  5
D2
330
1F
100
AcDbEntity
  8
owl_86_48_cutting_plan_sheet2
100
AcDbCircle
 10
65.61437168854536
 20
875.155591637213
 30
0.0000000000000142
 40
0.125
  0
CIRCLE
  5
D3
330
1F
100
AcDbEntity
  8
owl_86_48_cutting_plan_sheet2
100
AcDbCircle
 10
61.32727994857862
 20
874.3196327496431
 30
0.0000000000000426
 40
0.125
  0
CIRCLE
  5
D4
330
1F
100
AcDbEntity
  8
owl_86_48_cutting_plan_sheet2
100
AcDbCircle
 10
57.30818448372588
 20
872.6277882874003
 30
0.0000000000000142
 40
0.125
  0
CIRCLE
  5
D5
330
1F
100
AcDbEntity
  8
owl_86_48_cutting_plan_sheet2
100
AcDbCircle
 10
53.90851837238085
 20
869.9019429300902
 30
0.0000000000000142
 40
0.125
  0
CIRCLE
  5
D6
330
1F
100
AcDbEntity
  8
owl_86_48_cutting_plan_sheet2
100
AcDbCircle
 10
51.45214987006307
 20
866.3059191439522
 30
0.0000000000000142
 40
0.125
  0
SPLINE
  5
D7
330
1F
100
AcDbEntity
  8
owl_86_48_cutting_plan_sheet2
100
AcDbSpline
210
0.0
220
0.0
230
1.0
 70
     8
 71
     3
 72
    29
 73
    25
 74
     0
 42
0.000000001
 43
0.0000000001
 40
63.03660058796127
 40
63.03660058796127
 40
63.03660058796127
 40
63.03660058796127
 40
67.2674732830059
 40
67.2674732830059
 40
67.2674732830059
 40
70.07174868776454
 40
70.07174868776454
 40
70.07174868776454
 40
72.87396660371121
 40
72.87396660371121
 40
72.87396660371121
 40
75.67769756801553
 40
75.67769756801553
 40
75.67769756801553
 40
78.45374043561003
 40
78.45374043561003
 40
78.45374043561003
 40
81.184886657054
 40
81.184886657054
 40
81.184886657054
 40
83.88544511474666
 40
83.88544511474666
 40
83.88544511474666
 40
84.77689678210973
 40
84.77689678210973
 40
84.77689678210973
 40
84.77689678210973
 10
52.0305212105385
 20
863.157590274245
 30
0.0000000000000142
 10
52.24150634844023
 20
864.2469292824708
 30
0.0000000000000142
 10
52.64512791381026
 20
865.320936351818
 30
0.0000000000000142
 10
53.20855797217507
 20
866.3359219475146
 30
0.0000000000000142
 10
53.58354084492521
 20
867.0117816415338
 30
0.0000000000000142
 10
54.02616173709475
 20
867.655996827091
 30
0.0000000000000142
 10
54.52622198979441
 20
868.2589922075308
 30
0.0000000000000142
 10
55.0260934828467
 20
868.8618025152865
 30
0.0000000000000142
 10
55.58200746248224
 20
869.4218465405758
 30
0.0000000000000142
 10
56.18499388680436
 20
869.9333429912156
 30
0.0000000000000142
 10
56.78753848016959
 20
870.4445339327958
 30
0.0000000000000142
 10
57.4350300622574
 20
870.905200565372
 30
0.0000000000000142
 10
58.11194851437267
 20
871.3023003931827
 30
0.0000000000000142
 10
58.78279260961779
 20
871.6959327733
 30
0.0000000000000142
 10
59.49826316800329
 20
872.0364145402015
 30
0.0000000000000142
 10
60.24447723923311
 20
872.3249107232934
 30
0.0000000000000142
 10
60.97971809923922
 20
872.6092168534349
 30
0.0000000000000142
 10
61.74637643570043
 20
872.8437120426393
 30
0.0000000000000142
 10
62.54064490406859
 20
873.038229570171
 30
0.0000000000000142
 10
63.32632174588264
 20
873.2306784067713
 30
0.0000000000000142
 10
64.13232270080357
 20
873.382384478773
 30
0.0000000000000142
 10
64.95814525752314
 20
873.5038179685893
 30
0.0000000000000142
 10
65.23043435359932
 20
873.5439229913885
 30
0.0000000000000142
 10
65.5046483557336
 20
873.5806531339855
 30
0.0000000000000142
 10
65.78067672071745
 20
873.6144333635252
 30
0.0000000000000142
  0
LINE
  5
D8
330
1F
100
AcDbEntity
  8
owl_86_48_cutting_plan_sheet2
100
AcDbLine
 10
65.78067672071745
 20
873.6144333635252
 30
0.0000000000000142
 11
65.78067672071734
 21
874.6498832204898
 31
0.0000000000000142
  0
POLYLINE
  5
D9
330
1F
100
AcDbEntity
  8
owl_86_48_cutting_plan_sheet2
100
AcDb2dPolyline
 66
     1
 10
0.0
 20
0.0
 30
0.0000000000000142
  0
VERTEX
  5
DA
330
D9
100
AcDbEntity
  8
owl_86_48_cutting_plan_sheet2
100
AcDbVertex
100
AcDb2dVertex
 10
65.78067672071734
 20
874.6498832204898
 30
0.0000000000000142
  0
VERTEX
  5
DB
330
D9
100
AcDbEntity
  8
owl_86_48_cutting_plan_sheet2
100
AcDbVertex
100
AcDb2dVertex
 10
66.15567672071734
 20
874.6498832204898
 30
0.0000000000000142
  0
VERTEX
  5
DC
330
D9
100
AcDbEntity
  8
owl_86_48_cutting_plan_sheet2
100
AcDbVertex
100
AcDb2dVertex
 10
66.15567672071779
 20
873.6584260194243
 30
0.0000000000000142
  0
SEQEND
  5
DD
330
D9
100
AcDbEntity
  8
owl_86_48_cutting_plan_sheet2
  0
SPLINE
  5
DE
330
1F
100
AcDbEntity
  8
owl_86_48_cutting_plan_sheet2
100
AcDbSpline
210
0.0
220
0.0
230
1.0
 70
     8
 71
     3
 72
     8
 73
     4
 74
     0
 42
0.000000001
 43
0.0000000001
 40
87.17880384013966
 40
87.17880384013966
 40
87.17880384013966
 40
87.17880384013966
 40
91.15012414218192
 40
91.15012414218192
 40
91.15012414218192
 40
91.15012414218192
 10
66.15567672071779
 20
873.6584260194243
 30
0.0000000000000142
 10
67.39255001055267
 20
873.7974315497188
 30
0.0000000000000142
 10
68.66443498516787
 20
873.8817003672034
 30
0.0000000000000142
 10
69.96154084002103
 20
873.948802543049
 30
0.0000000000000142
  0
SPLINE
  5
DF
330
1F
100
AcDbEntity
  8
owl_86_48_cutting_plan_sheet2
100
AcDbSpline
210
0.0
220
0.0
230
1.0
 70
     8
 71
     3
 72
     8
 73
     4
 74
     0
 42
0.000000001
 43
0.0000000001
 40
91.15012414218192
 40
91.15012414218192
 40
91.15012414218192
 40
91.15012414218192
 40
95.13432659148059
 40
95.13432659148059
 40
95.13432659148059
 40
95.13432659148059
 10
69.96154084002103
 20
873.948802543049
 30
0.0000000000000142
 10
71.2629457496356
 20
873.8824309915093
 30
0.0000000000000142
 10
72.53928609615014
 20
873.7983605133871
 30
0.0000000000000142
 10
73.78067672071677
 20
873.6590597930461
 30
0.0000000000000142
  0
LINE
  5
E0
330
1F
100
AcDbEntity
  8
owl_86_48_cutting_plan_sheet2
100
AcDbLine
 10
73.78067672071722
 20
873.6590597930461
 30
0.0000000000000142
 11
73.78067672071722
 21
874.6505507538292
 31
0.0000000000000142
  0
POLYLINE
  5
E1
330
1F
100
AcDbEntity
  8
owl_86_48_cutting_plan_sheet2
100
AcDb2dPolyline
 66
     1
 10
0.0
 20
0.0
 30
0.0000000000000142
  0
VERTEX
  5
E2
330
E1
100
AcDbEntity
  8
owl_86_48_cutting_plan_sheet2
100
AcDbVertex
100
AcDb2dVertex
 10
73.78067672071722
 20
874.6505507538292
 30
0.0000000000000142
  0
VERTEX
  5
E3
330
E1
100
AcDbEntity
  8
owl_86_48_cutting_plan_sheet2
100
AcDbVertex
100
AcDb2dVertex
 10
74.15567672071722
 20
874.6505507538292
 30
0.0000000000000142
  0
VERTEX
  5
E4
330
E1
100
AcDbEntity
  8
owl_86_48_cutting_plan_sheet2
100
AcDbVertex
100
AcDb2dVertex
 10
74.15567672071722
 20
873.6151303244571
 30
0.0000000000000142
  0
SEQEND
  5
E5
330
E1
100
AcDbEntity
  8
owl_86_48_cutting_plan_sheet2
  0
SPLINE
  5
E6
330
1F
100
AcDbEntity
  8
owl_86_48_cutting_plan_sheet2
100
AcDbSpline
210
0.0
220
0.0
230
1.0
 70
     8
 71
     3
 72
    29
 73
    25
 74
     0
 42
0.000000001
 43
0.0000000001
 40
97.5362379816357
 40
97.5362379816357
 40
97.5362379816357
 40
97.5362379816357
 40
98.43724208808888
 40
98.43724208808888
 40
98.43724208808888
 40
101.1364841875634
 40
101.1364841875634
 40
101.1364841875634
 40
103.8662701811992
 40
103.8662701811992
 40
103.8662701811992
 40
106.6409134917586
 40
106.6409134917586
 40
106.6409134917586
 40
109.4432185506609
 40
109.4432185506609
 40
109.4432185506609
 40
112.243996426484
 40
112.243996426484
 40
112.243996426484
 40
115.0468174522175
 40
115.0468174522175
 40
115.0468174522175
 40
119.2754231234462
 40
119.2754231234462
 40
119.2754231234462
 40
119.2754231234462
 10
74.15567672071722
 20
873.6151303244571
 30
0.0000000000000142
 10
74.43479107792405
 20
873.5810191388738
 30
0.0000000000000142
 10
74.71206681448302
 20
873.5438896108465
 30
0.0000000000000142
 10
74.98738980541464
 20
873.5033076558501
 30
0.0000000000000142
 10
75.81315872358869
 20
873.381790420715
 30
0.0000000000000142
 10
76.61910109694952
 20
873.2300027292818
 30
0.0000000000000142
 10
77.404717600342
 20
873.0374748189587
 30
0.0000000000000142
 10
78.19891684852632
 20
872.8428793319345
 30
0.0000000000000142
 10
78.96550188249319
 20
872.6083112060182
 30
0.0000000000000142
 10
79.70067130028883
 20
872.3239385023539
 30
0.0000000000000142
 10
80.44680809388774
 20
872.0353765385512
 30
0.0000000000000142
 10
81.16220053378163
 20
871.6948371799112
 30
0.0000000000000142
 10
81.83297178314035
 20
871.3011575870091
 30
0.0000000000000142
 10
82.50981303521155
 20
870.904012271645
 30
0.0000000000000142
 10
83.15722894331816
 20
870.443311411924
 30
0.0000000000000142
 10
83.7596982540623
 20
869.9321002176273
 30
0.0000000000000142
 10
84.36260642059483
 20
869.4205860139443
 30
0.0000000000000142
 10
84.91844559487026
 20
868.8605368573469
 30
0.0000000000000142
 10
85.41824542830852
 20
868.2577341204255
 30
0.0000000000000142
 10
85.91823170964938
 20
867.6547490996835
 30
0.0000000000000142
 10
86.36078429401425
 20
867.010555251984
 30
0.0000000000000142
 10
86.73570520454302
 20
866.3347273070544
 30
0.0000000000000142
 10
87.29903281796567
 20
865.3198064891055
 30
0.0000000000000142
 10
87.70257420512951
 20
864.2458861784181
 30
0.0000000000000142
 10
87.91350641703059
 20
863.1566495296853
 30
0.0000000000000142
  0
POLYLINE
  5
E7
330
1F
100
AcDbEntity
  8
owl_86_48_cutting_plan_sheet2
100
AcDb2dPolyline
 66
     1
 10
0.0
 20
0.0
 30
0.0000000000000142
  0
VERTEX
  5
E8
330
E7
100
AcDbEntity
  8
owl_86_48_cutting_plan_sheet2
100
AcDbVertex
100
AcDb2dVertex
 10
87.91350641703059
 20
863.1566495296853
 30
0.0000000000000142
  0
VERTEX
  5
E9
330
E7
100
AcDbEntity
  8
owl_86_48_cutting_plan_sheet2
100
AcDbVertex
100
AcDb2dVertex
 10
88.05783791132728
 20
863.1566495296853
 30
0.0000000000000142
  0
VERTEX
  5
EA
330
E7
100
AcDbEntity
  8
owl_86_48_cutting_plan_sheet2
100
AcDbVertex
100
AcDb2dVertex
 10
88.05783791132728
 20
862.1667066529565
 30
0.0000000000000142
  0
SEQEND
  5
EB
330
E7
100
AcDbEntity
  8
owl_86_48_cutting_plan_sheet2
  0
LINE
  5
EC
330
1F
100
AcDbEntity
  8
owl_86_48_cutting_plan_sheet2
100
AcDbLine
 10
88.05783791132728
 20
862.1667066529565
 30
0.0000000000000142
 11
89.80783791132728
 21
862.1666666666666
 31
0.0000000000000142
  0
POLYLINE
  5
ED
330
1F
100
AcDbEntity
  8
owl_86_48_cutting_plan_sheet2
100
AcDb2dPolyline
 66
     1
 10
0.0
 20
0.0
 30
0.0000000000000142
  0
VERTEX
  5
EE
330
ED
100
AcDbEntity
  8
owl_86_48_cutting_plan_sheet2
100
AcDbVertex
100
AcDb2dVertex
 10
89.80783791132728
 20
862.1666666666666
 30
0.0000000000000142
  0
VERTEX
  5
EF
330
ED
100
AcDbEntity
  8
owl_86_48_cutting_plan_sheet2
100
AcDbVertex
100
AcDb2dVertex
 10
89.80783791132728
 20
863.1566495296853
 30
0.0000000000000142
  0
VERTEX
  5
F0
330
ED
100
AcDbEntity
  8
owl_86_48_cutting_plan_sheet2
100
AcDbVertex
100
AcDb2dVertex
 10
89.94401788990035
 20
863.1566495296836
 30
0.0000000000000142
  0
SEQEND
  5
F1
330
ED
100
AcDbEntity
  8
owl_86_48_cutting_plan_sheet2
  0
SPLINE
  5
F2
330
1F
100
AcDbEntity
  8
owl_86_48_cutting_plan_sheet2
100
AcDbSpline
210
0.0
220
0.0
230
1.0
 70
     8
 71
     3
 72
    29
 73
    25
 74
     0
 42
0.000000001
 43
0.0000000001
 40
123.2858603365202
 40
123.2858603365202
 40
123.2858603365202
 40
123.2858603365202
 40
127.9206083891691
 40
127.9206083891691
 40
127.9206083891691
 40
130.7234293902694
 40
130.7234293902694
 40
130.7234293902694
 40
133.5242072414773
 40
133.5242072414773
 40
133.5242072414773
 40
136.3265122757509
 40
136.3265122757509
 40
136.3265122757509
 40
139.1011555619248
 40
139.1011555619248
 40
139.1011555619248
 40
141.8309415315692
 40
141.8309415315692
 40
141.8309415315692
 40
144.5301836073209
 40
144.5301836073209
 40
144.5301836073209
 40
149.8959457066303
 40
149.8959457066303
 40
149.8959457066303
 40
149.8959457066303
 10
89.94401788990035
 20
863.1566495296836
 30
0.0000000000000142
 10
89.7134428664026
 20
864.607022636938
 30
0.0000000000000142
 10
89.20345078704031
 20
866.0093632883552
 30
0.0000000000000142
 10
88.48458416357391
 20
867.3049965411649
 30
0.0000000000000142
 10
88.04738925353502
 20
868.0930352694241
 30
0.0000000000000142
 10
87.53430944885497
 20
868.8390594310416
 30
0.0000000000000142
 10
86.95785432071432
 20
869.5342937384701
 30
0.0000000000000142
 10
86.38154229097279
 20
870.2293639772362
 30
0.0000000000000142
 10
85.7431875902281
 20
870.8721011321094
 30
0.0000000000000142
 10
85.053601223079
 20
871.4571625464414
 30
0.0000000000000142
 10
84.36446620394338
 20
872.0418548907364
 30
0.0000000000000142
 10
83.6238182999565
 20
872.5691733371632
 30
0.0000000000000142
 10
82.84523017169977
 20
873.0260729341466
 30
0.0000000000000142
 10
82.07352881491909
 20
873.478950347926
 30
0.0000000000000142
 10
81.26057551290546
 20
873.8649884792761
 30
0.0000000000000142
 10
80.42215244823444
 20
874.189270899853
 30
0.0000000000000142
 10
79.59592128503289
 20
874.5088482348198
 30
0.0000000000000142
 10
78.74659847621456
 20
874.7678294424699
 30
0.0000000000000142
 10
77.8807237969902
 20
874.9800036091578
 30
0.0000000000000142
 10
77.0241148124694
 20
875.1899143830814
 30
0.0000000000000142
 10
76.15609032281054
 20
875.3528505135421
 30
0.0000000000000142
 10
75.27860590716273
 20
875.4819923659751
 30
0.0000000000000142
 10
73.53597152788075
 20
875.7385398587994
 30
0.0000000000000142
 10
71.76358942963395
 20
875.8602089972482
 30
0.0000000000000142
 10
69.98603666780616
 20
875.9514082035993
 30
0.0000000000000142
  0
SPLINE
  5
F3
330
1F
100
AcDbEntity
  8
owl_86_48_cutting_plan_sheet2
100
AcDbSpline
210
0.0
220
0.0
230
1.0
 70
     8
 71
     3
 72
    29
 73
    25
 74
     0
 42
0.000000001
 43
0.0000000001
 40
149.8959457066303
 40
149.8959457066303
 40
149.8959457066303
 40
149.8959457066303
 40
155.2901540193712
 40
155.2901540193712
 40
155.2901540193712
 40
157.9907250574968
 40
157.9907250574968
 40
157.9907250574968
 40
160.7218840018655
 40
160.7218840018655
 40
160.7218840018655
 40
163.4979398015338
 40
163.4979398015338
 40
163.4979398015338
 40
166.3016838268956
 40
166.3016838268956
 40
166.3016838268956
 40
169.1039147968514
 40
169.1039147968514
 40
169.1039147968514
 40
171.9082032652038
 40
171.9082032652038
 40
171.9082032652038
 40
176.5454840151415
 40
176.5454840151415
 40
176.5454840151415
 40
176.5454840151415
 10
69.98603666780616
 20
875.9514082035993
 30
0.0000000000000142
 10
68.19950749454915
 20
875.861571451605
 30
0.0000000000000142
 10
66.41825796180785
 20
875.7401363971057
 30
0.0000000000000142
 10
64.66714405671269
 20
875.4825342951825
 30
0.0000000000000142
 10
63.78960819344275
 20
875.3534822419998
 30
0.0000000000000142
 10
62.92152682882102
 20
875.1906351738031
 30
0.0000000000000142
 10
62.06485765292234
 20
874.9808119987043
 30
0.0000000000000142
 10
61.19891317365114
 20
874.7687241915958
 30
0.0000000000000142
 10
60.34951386602643
 20
874.5098253966676
 30
0.0000000000000142
 10
59.52320407295088
 20
874.1903235514902
 30
0.0000000000000142
 10
58.68469590967629
 20
873.8661156937301
 30
0.0000000000000142
 10
57.87165257644369
 20
873.4801428326134
 30
0.0000000000000142
 10
57.0998622666234
 20
873.0273167487911
 30
0.0000000000000142
 10
56.32118014554055
 20
872.5704664517698
 30
0.0000000000000142
 10
55.58044006662124
 20
872.0431831236306
 30
0.0000000000000142
 10
54.8912147020061
 20
871.4585103331752
 30
0.0000000000000142
 10
54.20153452776378
 20
870.8734655918126
 30
0.0000000000000142
 10
53.56309101266618
 20
870.2307312171424
 30
0.0000000000000142
 10
52.98669512894037
 20
869.5356507541712
 30
0.0000000000000142
 10
52.41015344628761
 20
868.8404029824231
 30
0.0000000000000142
 10
51.89699421336161
 20
868.0943535276126
 30
0.0000000000000142
 10
51.45972768879767
 20
867.306278912729
 30
0.0000000000000142
 10
50.74072702698174
 20
866.0105572532508
 30
0.0000000000000142
 10
50.2306344172913
 20
864.6080990017834
 30
0.0000000000000142
 10
50.0
 20
863.1575902742433
 30
0.0000000000000142
  0
POLYLINE
  5
F4
330
1F
100
AcDbEntity
  8
owl_86_48_cutting_plan_sheet2
100
AcDb2dPolyline
 66
     1
 10
0.0
 20
0.0
 30
0.0000000000000142
  0
VERTEX
  5
F5
330
F4
100
AcDbEntity
  8
owl_86_48_cutting_plan_sheet2
100
AcDbVertex
100
AcDb2dVertex
 10
50.0
 20
863.157590274245
 30
0.0000000000000142
  0
VERTEX
  5
F6
330
F4
100
AcDbEntity
  8
owl_86_48_cutting_plan_sheet2
100
AcDbVertex
100
AcDb2dVertex
 10
50.13615161830978
 20
863.157590274245
 30
0.0000000000000142
  0
VERTEX
  5
F7
330
F4
100
AcDbEntity
  8
owl_86_48_cutting_plan_sheet2
100
AcDbVertex
100
AcDb2dVertex
 10
50.13615161830978
 20
862.1675731372636
 30
0.0000000000000142
  0
SEQEND
  5
F8
330
F4
100
AcDbEntity
  8
owl_86_48_cutting_plan_sheet2
  0
LINE
  5
F9
330
1F
100
AcDbEntity
  8
owl_86_48_cutting_plan_sheet2
100
AcDbLine
 10
50.13615161830978
 20
862.1675731372636
 30
0.0000000000000142
 11
51.88615161830978
 21
862.1675331509739
 31
0.0000000000000142
  0
POLYLINE
  5
FA
330
1F
100
AcDbEntity
  8
owl_86_48_cutting_plan_sheet2
100
AcDb2dPolyline
 66
     1
 10
0.0
 20
0.0
 30
0.0000000000000142
  0
VERTEX
  5
FB
330
FA
100
AcDbEntity
  8
owl_86_48_cutting_plan_sheet2
100
AcDbVertex
100
AcDb2dVertex
 10
51.88615161830978
 20
862.1675331509739
 30
0.0000000000000142
  0
VERTEX
  5
FC
330
FA
100
AcDbEntity
  8
owl_86_48_cutting_plan_sheet2
100
AcDbVertex
100
AcDb2dVertex
 10
51.88615161830978
 20
863.157590274245
 30
0.0000000000000142
  0
VERTEX
  5
FD
330
FA
100
AcDbEntity
  8
owl_86_48_cutting_plan_sheet2
100
AcDbVertex
100
AcDb2dVertex
 10
52.0305212105385
 20
863.157590274245
 30
0.0000000000000142
  0
SEQEND
  5
FE
330
FA
100
AcDbEntity
  8
owl_86_48_cutting_plan_sheet2
  0
MTEXT
  5
FF
330
1F
100
AcDbEntity
  8
owl_86_48_cutting_plan_sheet2
100
AcDbMText
 10
23.76282788064452
 20
873.4220487522692
 30
0.0000000000000142
 40
0.4
 41
0.6626506024096386
 71
     1
 72
     1
  1
\fArial;2
 11
-1.0
 21
1.224646799147353E-16
 31
0.0
 73
     2
 44
0.9638554216867472
1001
ACAD
1000
ACAD_MTEXT_DEFINED_HEIGHT_BEGIN
1070
    46
1040
0.4024096385542169
1000
ACAD_MTEXT_DEFINED_HEIGHT_END
  0
CIRCLE
  5
100
330
1F
100
AcDbEntity
  8
owl_86_48_cutting_plan_sheet2
100
AcDbCircle
 10
45.71946364797168
 20
860.4442823715996
 30
0.0000000000000142
 40
0.125
  0
CIRCLE
  5
101
330
1F
100
AcDbEntity
  8
owl_86_48_cutting_plan_sheet2
100
AcDbCircle
 10
1.806198307448426
 20
860.4445259700083
 30
0.0000000000000142
 40
0.125
  0
CIRCLE
  5
102
330
1F
100
AcDbEntity
  8
owl_86_48_cutting_plan_sheet2
100
AcDbCircle
 10
45.39548600339151
 20
863.9151836775715
 30
0.0000000000000142
 40
0.125
  0
CIRCLE
  5
103
330
1F
100
AcDbEntity
  8
owl_86_48_cutting_plan_sheet2
100
AcDbCircle
 10
42.69338619284053
 20
868.2963235348313
 30
0.0000000000000142
 40
0.125
  0
CIRCLE
  5
104
330
1F
100
AcDbEntity
  8
owl_86_48_cutting_plan_sheet2
100
AcDbCircle
 10
38.82324833427629
 20
871.6811015898181
 30
0.0000000000000142
 40
0.125
  0
CIRCLE
  5
105
330
1F
100
AcDbEntity
  8
owl_86_48_cutting_plan_sheet2
100
AcDbCircle
 10
34.03840634718756
 20
873.5661476254321
 30
0.0000000000000142
 40
0.125
  0
CIRCLE
  5
106
330
1F
100
AcDbEntity
  8
owl_86_48_cutting_plan_sheet2
100
AcDbCircle
 10
28.92538219453911
 20
874.2485898678784
 30
0.0000000000000142
 40
0.125
  0
CIRCLE
  5
107
330
1F
100
AcDbEntity
  8
owl_86_48_cutting_plan_sheet2
100
AcDbCircle
 10
23.76282783933368
 20
874.372095889011
 30
0.0000000000000142
 40
0.125
  0
CIRCLE
  5
108
330
1F
100
AcDbEntity
  8
owl_86_48_cutting_plan_sheet2
100
AcDbCircle
 10
18.60027840883811
 20
874.2486392858833
 30
0.0000000000000142
 40
0.125
  0
CIRCLE
  5
109
330
1F
100
AcDbEntity
  8
owl_86_48_cutting_plan_sheet2
100
AcDbCircle
 10
13.48723591543296
 20
873.5663526353319
 30
0.0000000000000142
 40
0.125
  0
CIRCLE
  5
10A
330
1F
100
AcDbEntity
  8
owl_86_48_cutting_plan_sheet2
100
AcDbCircle
 10
8.702371376105702
 20
871.6813680950053
 30
0.0000000000000355
 40
0.125
  0
CIRCLE
  5
10B
330
1F
100
AcDbEntity
  8
owl_86_48_cutting_plan_sheet2
100
AcDbCircle
 10
4.832237149389925
 20
868.2965884056587
 30
0.0000000000000142
 40
0.125
  0
CIRCLE
  5
10C
330
1F
100
AcDbEntity
  8
owl_86_48_cutting_plan_sheet2
100
AcDbCircle
 10
2.130165349401636
 20
863.915431255587
 30
0.0000000000000142
 40
0.125
  0
SPLINE
  5
10D
330
1F
100
AcDbEntity
  8
owl_86_48_cutting_plan_sheet2
100
AcDbSpline
210
0.0
220
0.0
230
1.0
 70
     8
 71
     3
 72
    29
 73
    25
 74
     0
 42
0.000000001
 43
0.0000000001
 40
72.38051218145485
 40
72.38051218145485
 40
72.38051218145485
 40
72.38051218145485
 40
77.52314452356448
 40
77.52314452356448
 40
77.52314452356448
 40
80.80196723071838
 40
80.80196723071838
 40
80.80196723071838
 40
84.08633737985495
 40
84.08633737985495
 40
84.08633737985495
 40
87.36298824099718
 40
87.36298824099718
 40
87.36298824099718
 40
90.60542509176996
 40
90.60542509176996
 40
90.60542509176996
 40
93.80937522444974
 40
93.80937522444974
 40
93.80937522444974
 40
96.99427943392179
 40
96.99427943392179
 40
96.99427943392179
 40
99.06564185411854
 40
99.06564185411854
 40
99.06564185411854
 40
99.06564185411854
 10
2.532185439290743
 20
860.0319092929167
 30
0.0000000000000142
 10
2.807455907009739
 20
861.4614535300408
 30
0.0000000000000142
 10
3.297400656514242
 20
862.8612441983902
 30
0.0000000000000142
 10
3.970014589978859
 20
864.184427880248
 30
0.0000000000000142
 10
4.40013809331856
 20
865.030813746371
 30
0.0000000000000142
 10
4.902319292852667
 20
865.8408094010839
 30
0.0000000000000142
 10
5.468934681884889
 20
866.6013448041952
 30
0.0000000000000142
 10
6.036122783060591
 20
867.3627439368206
 30
0.0000000000000142
 10
6.665858162964469
 20
868.0716456697469
 30
0.0000000000000142
 10
7.349084567295108
 20
868.7089459404697
 30
0.0000000000000142
 10
8.029766157725021
 20
869.3440770676631
 30
0.0000000000000142
 10
8.763646349408305
 20
869.907759746779
 30
0.0000000000000142
 10
9.533115026427254
 20
870.3723949384446
 30
0.0000000000000142
 10
10.29529144230776
 20
870.8328597925839
 30
0.0000000000000142
 10
11.12438570922302
 20
871.2157242255744
 30
0.0000000000000142
 10
11.99768337603825
 20
871.5241738177178
 30
0.0000000000000142
 10
12.8619825655411
 20
871.8295792044426
 30
0.0000000000000142
 10
13.77210831509058
 20
872.0629218558516
 30
0.0000000000000142
 10
14.71812721847925
 20
872.2414867532281
 30
0.0000000000000142
 10
15.65878326392942
 20
872.4191474864195
 30
0.0000000000000142
 10
16.62719506548422
 20
872.541265945375
 30
0.0000000000000142
 10
17.61738424287933
 20
872.625004170562
 30
0.0000000000000142
 10
18.26060468912726
 20
872.6796449807862
 30
0.0000000000000142
 10
18.91326975157062
 20
872.7178079223565
 30
0.0000000000000142
 10
19.5742154920373
 20
872.7450230366319
 30
0.0000000000000142
  0
LINE
  5
10E
330
1F
100
AcDbEntity
  8
owl_86_48_cutting_plan_sheet2
100
AcDbLine
 10
19.5742154920373
 20
872.7450230366319
 30
0.0000000000000142
 11
19.57421549203661
 21
873.7538643439151
 31
0.0000000000000142
  0
POLYLINE
  5
10F
330
1F
100
AcDbEntity
  8
owl_86_48_cutting_plan_sheet2
100
AcDb2dPolyline
 66
     1
 10
0.0
 20
0.0
 30
0.0000000000000142
  0
VERTEX
  5
110
330
10F
100
AcDbEntity
  8
owl_86_48_cutting_plan_sheet2
100
AcDbVertex
100
AcDb2dVertex
 10
19.57421549203661
 20
873.7538643439151
 30
0.0000000000000142
  0
VERTEX
  5
111
330
10F
100
AcDbEntity
  8
owl_86_48_cutting_plan_sheet2
100
AcDbVertex
100
AcDb2dVertex
 10
19.94921549203661
 20
873.7538643439151
 30
0.0000000000000142
  0
VERTEX
  5
112
330
10F
100
AcDbEntity
  8
owl_86_48_cutting_plan_sheet2
100
AcDbVertex
100
AcDb2dVertex
 10
19.94921549203821
 20
872.7592958479073
 30
0.0000000000000142
  0
SEQEND
  5
113
330
10F
100
AcDbEntity
  8
owl_86_48_cutting_plan_sheet2
  0
SPLINE
  5
114
330
1F
100
AcDbEntity
  8
owl_86_48_cutting_plan_sheet2
100
AcDbSpline
210
0.0
220
0.0
230
1.0
 70
     8
 71
     3
 72
    11
 73
     7
 74
     0
 42
0.000000001
 43
0.0000000001
 40
101.4440516574095
 40
101.4440516574095
 40
101.4440516574095
 40
101.4440516574095
 40
105.3294457503679
 40
105.3294457503679
 40
105.3294457503679
 40
109.2522579328549
 40
109.2522579328549
 40
109.2522579328549
 40
109.2522579328549
 10
19.94921549203821
 20
872.7592958479073
 30
0.0000000000000142
 10
21.19477843634309
 20
872.8029649516842
 30
0.0000000000000142
 10
22.46870228741477
 20
872.8117852657911
 30
0.0000000000000142
 10
23.76330205643774
 20
872.8222543494674
 30
0.0000000000000142
 10
25.02448751568397
 20
872.811801367561
 30
0.0000000000000142
 10
26.31194456783135
 20
872.803323823423
 30
0.0000000000000142
 10
27.57421549203661
 20
872.7592392633723
 30
0.0000000000000142
  0
LINE
  5
115
330
1F
100
AcDbEntity
  8
owl_86_48_cutting_plan_sheet2
100
AcDbLine
 10
27.57421549203661
 20
872.7592392633723
 30
0.0000000000000142
 11
27.57421549203673
 21
873.7538440114428
 31
0.0000000000000142
  0
POLYLINE
  5
116
330
1F
100
AcDbEntity
  8
owl_86_48_cutting_plan_sheet2
100
AcDb2dPolyline
 66
     1
 10
0.0
 20
0.0
 30
0.0000000000000142
  0
VERTEX
  5
117
330
116
100
AcDbEntity
  8
owl_86_48_cutting_plan_sheet2
100
AcDbVertex
100
AcDb2dVertex
 10
27.57421549203673
 20
873.7538440114428
 30
0.0000000000000142
  0
VERTEX
  5
118
330
116
100
AcDbEntity
  8
owl_86_48_cutting_plan_sheet2
100
AcDbVertex
100
AcDb2dVertex
 10
27.94921549203673
 20
873.7538440114428
 30
0.0000000000000142
  0
VERTEX
  5
119
330
116
100
AcDbEntity
  8
owl_86_48_cutting_plan_sheet2
100
AcDbVertex
100
AcDb2dVertex
 10
27.94921549203627
 20
872.745026004074
 30
0.0000000000000142
  0
SEQEND
  5
11A
330
116
100
AcDbEntity
  8
owl_86_48_cutting_plan_sheet2
  0
SPLINE
  5
11B
330
1F
100
AcDbEntity
  8
owl_86_48_cutting_plan_sheet2
100
AcDbSpline
210
0.0
220
0.0
230
1.0
 70
     8
 71
     3
 72
    29
 73
    25
 74
     0
 42
0.000000001
 43
0.0000000001
 40
111.630680688294
 40
111.630680688294
 40
111.630680688294
 40
111.630680688294
 40
113.7035488593429
 40
113.7035488593429
 40
113.7035488593429
 40
116.8863883388288
 40
116.8863883388288
 40
116.8863883388288
 40
120.0882553545384
 40
120.0882553545384
 40
120.0882553545384
 40
123.3285840592408
 40
123.3285840592408
 40
123.3285840592408
 40
126.6031055160359
 40
126.6031055160359
 40
126.6031055160359
 40
129.8853366617156
 40
129.8853366617156
 40
129.8853366617156
 40
133.1620188443738
 40
133.1620188443738
 40
133.1620188443738
 40
138.3012622854926
 40
138.3012622854926
 40
138.3012622854926
 40
138.3012622854926
 10
27.94921549203627
 20
872.745026004074
 30
0.0000000000000142
 10
28.6133076656306
 20
872.7178011785546
 30
0.0000000000000142
 10
29.2689414842755
 20
872.6795927388777
 30
0.0000000000000142
 10
29.90852465340492
 20
872.6248556073721
 30
0.0000000000000142
 10
30.89869966047684
 20
872.5410906600371
 30
0.0000000000000142
 10
31.86709558221776
 20
872.4189452061933
 30
0.0000000000000142
 10
32.80773633052388
 20
872.2412581772533
 30
0.0000000000000142
 10
33.75373820595416
 20
872.0626671131024
 30
0.0000000000000142
 10
34.66384545588039
 20
871.8292999112813
 30
0.0000000000000142
 10
35.52812861313953
 20
871.5238726804245
 30
0.0000000000000142
 10
36.40141001786753
 20
871.2154009849752
 30
0.0000000000000142
 10
37.23048860983499
 20
870.8325178147126
 30
0.0000000000000142
 10
37.99265410784278
 20
870.3720383822796
 30
0.0000000000000142
 10
38.76211142734758
 20
869.9073886546564
 30
0.0000000000000142
 10
39.49598262990412
 20
869.3436960779428
 30
0.0000000000000142
 10
40.17665519605043
 20
868.7085615329081
 30
0.0000000000000142
 10
40.8598717668873
 20
868.0712585753291
 30
0.0000000000000142
 10
41.48959945381762
 20
867.3623590411486
 30
0.0000000000000142
 10
42.05678012553926
 20
866.6009666494976
 30
0.0000000000000142
 10
42.62338726019505
 20
865.8404391036748
 30
0.0000000000000142
 10
43.12556194550905
 20
865.030454286941
 30
0.0000000000000142
 10
43.55567943509971
 20
864.1840816768445
 30
0.0000000000000142
 10
44.22827982374361
 20
862.8609268917058
 30
0.0000000000000142
 10
44.71821542939142
 20
861.4611702087243
 30
0.0000000000000142
 10
44.99347896721281
 20
860.0316627993532
 30
0.0000000000000142
  0
POLYLINE
  5
11C
330
1F
100
AcDbEntity
  8
owl_86_48_cutting_plan_sheet2
100
AcDb2dPolyline
 66
     1
 10
0.0
 20
0.0
 30
0.0000000000000142
  0
VERTEX
  5
11D
330
11C
100
AcDbEntity
  8
owl_86_48_cutting_plan_sheet2
100
AcDbVertex
100
AcDb2dVertex
 10
44.99347896721281
 20
860.0316627993532
 30
0.0000000000000142
  0
VERTEX
  5
11E
330
11C
100
AcDbEntity
  8
owl_86_48_cutting_plan_sheet2
100
AcDbVertex
100
AcDb2dVertex
 10
45.16445944282464
 20
860.0316627993532
 30
0.0000000000000142
  0
VERTEX
  5
11F
330
11C
100
AcDbEntity
  8
owl_86_48_cutting_plan_sheet2
100
AcDbVertex
100
AcDb2dVertex
 10
45.16445944282464
 20
859.0416756903977
 30
0.0000000000000142
  0
SEQEND
  5
120
330
11C
100
AcDbEntity
  8
owl_86_48_cutting_plan_sheet2
  0
LINE
  5
121
330
1F
100
AcDbEntity
  8
owl_86_48_cutting_plan_sheet2
100
AcDbLine
 10
45.16445944282464
 20
859.0416756903977
 30
0.0000000000000142
 11
46.91445944282464
 21
859.0416666666666
 31
0.0000000000000142
  0
POLYLINE
  5
122
330
1F
100
AcDbEntity
  8
owl_86_48_cutting_plan_sheet2
100
AcDb2dPolyline
 66
     1
 10
0.0
 20
0.0
 30
0.0000000000000142
  0
VERTEX
  5
123
330
122
100
AcDbEntity
  8
owl_86_48_cutting_plan_sheet2
100
AcDbVertex
100
AcDb2dVertex
 10
46.91445944282464
 20
859.0416666666666
 30
0.0000000000000142
  0
VERTEX
  5
124
330
122
100
AcDbEntity
  8
owl_86_48_cutting_plan_sheet2
100
AcDbVertex
100
AcDb2dVertex
 10
46.91445944282464
 20
860.0316627993532
 30
0.0000000000000142
  0
VERTEX
  5
125
330
122
100
AcDbEntity
  8
owl_86_48_cutting_plan_sheet2
100
AcDbVertex
100
AcDb2dVertex
 10
47.02566428351793
 20
860.0316627993528
 30
0.0000000000000142
  0
SEQEND
  5
126
330
122
100
AcDbEntity
  8
owl_86_48_cutting_plan_sheet2
  0
SPLINE
  5
127
330
1F
100
AcDbEntity
  8
owl_86_48_cutting_plan_sheet2
100
AcDbSpline
210
0.0
220
0.0
230
1.0
 70
     8
 71
     3
 72
    53
 73
    49
 74
     0
 42
0.000000001
 43
0.0000000001
 40
142.3134308434631
 40
142.3134308434631
 40
142.3134308434631
 40
142.3134308434631
 40
147.8507138782671
 40
147.8507138782671
 40
147.8507138782671
 40
151.1273960609253
 40
151.1273960609253
 40
151.1273960609253
 40
154.4096272066049
 40
154.4096272066049
 40
154.4096272066049
 40
157.6841486634001
 40
157.6841486634001
 40
157.6841486634001
 40
160.9244773681025
 40
160.9244773681025
 40
160.9244773681025
 40
164.1263443838121
 40
164.1263443838121
 40
164.1263443838121
 40
167.309183863298
 40
167.309183863298
 40
167.309183863298
 40
173.6941548757047
 40
173.6941548757047
 40
173.6941548757047
 40
180.0417386117022
 40
180.0417386117022
 40
180.0417386117022
 40
183.2266427647329
 40
183.2266427647329
 40
183.2266427647329
 40
186.4305928406338
 40
186.4305928406338
 40
186.4305928406338
 40
189.6730296339456
 40
189.6730296339456
 40
189.6730296339456
 40
192.9496804370206
 40
192.9496804370206
 40
192.9496804370206
 40
196.2340505279531
 40
196.2340505279531
 40
196.2340505279531
 40
199.5128731770012
 40
199.5128731770012
 40
199.5128731770012
 40
205.0537988725965
 40
205.0537988725965
 40
205.0537988725965
 40
205.0537988725965
 10
47.02566428351793
 20
860.0316627993528
 30
0.0000000000000142
 10
46.72931010039792
 20
861.7890155274911
 30
0.0000000000000142
 10
46.14936576902255
 20
863.4950156236152
 30
0.0000000000000142
 10
45.33863896628998
 20
865.0902027008447
 30
0.0000000000000142
 10
44.8572071820148
 20
866.0375156462079
 30
0.0000000000000142
 10
44.29536200998939
 20
866.9438216477647
 30
0.0000000000000142
 10
43.66062857269037
 20
867.7958181710559
 30
0.0000000000000142
 10
43.02523485047254
 20
868.6487199918569
 30
0.0000000000000142
 10
42.31661230434656
 20
869.4473972336597
 30
0.0000000000000142
 10
41.54094351668732
 20
870.1709969599184
 30
0.0000000000000142
 10
40.76817934756616
 20
870.8919279744077
 30
0.0000000000000142
 10
39.92637767656288
 20
871.540555164899
 30
0.0000000000000142
 10
39.02674610821839
 20
872.0839536064537
 30
0.0000000000000142
 10
38.13548676159496
 20
872.6223416345854
 30
0.0000000000000142
 10
37.18229041485358
 20
873.0606149880626
 30
0.0000000000000142
 10
36.19438190549602
 20
873.4096368625063
 30
0.0000000000000142
 10
35.21633056489497
 20
873.7552030677555
 30
0.0000000000000142
 10
34.20661698476488
 20
874.0124432323687
 30
0.0000000000000142
 10
33.17887720579427
 20
874.2065201065399
 30
0.0000000000000142
 10
32.1567839899468
 20
874.3995523072949
 30
0.0000000000000142
 10
31.12060239036634
 20
874.5294245180888
 30
0.0000000000000142
 10
30.07720309951196
 20
874.6177298085747
 30
0.0000000000000142
 10
27.98913120437726
 20
874.7948369149983
 30
0.0000000000000142
 10
25.85531619582139
 20
874.8046873208655
 30
0.0000000000000142
 10
23.74651793491591
 20
874.8221839215437
 30
0.0000000000000142
 10
21.63616340839599
 20
874.8046023523428
 30
0.0000000000000142
 10
19.52604272106657
 20
874.7937797907704
 30
0.0000000000000142
 10
17.44876157705949
 20
874.6178830922659
 30
0.0000000000000142
 10
16.40534992213077
 20
874.5296061709149
 30
0.0000000000000142
 10
15.3691536645905
 20
874.3997631578184
 30
0.0000000000000142
 10
14.34704523528046
 20
874.2067598034032
 30
0.0000000000000142
 10
13.31928837866087
 20
874.0127116051093
 30
0.0000000000000142
 10
12.30955472724747
 20
873.7554989485477
 30
0.0000000000000142
 10
11.33148349419457
 20
873.409956869246
 30
0.0000000000000142
 10
10.34355486724758
 20
873.0609593659842
 30
0.0000000000000142
 10
9.39033660425514
 20
872.6227061543294
 30
0.0000000000000142
 10
8.499057929558035
 20
872.0843312457921
 30
0.0000000000000142
 10
7.599406460864657
 20
871.5409458152022
 30
0.0000000000000142
 10
6.757588466406673
 20
870.8923251300525
 30
0.0000000000000142
 10
5.984809821800695
 20
870.1713940314487
 30
0.0000000000000142
 10
5.209125567149727
 20
869.4477933425015
 30
0.0000000000000142
 10
4.50049175152526
 20
868.6491103613977
 30
0.0000000000000142
 10
3.865088661891377
 20
867.7961995837194
 30
0.0000000000000142
 10
3.230344909379141
 20
866.9441928264179
 30
0.0000000000000142
 10
2.668492367987369
 20
866.0378743179293
 30
0.0000000000000142
 10
2.187054441444275
 20
865.09054768951
 30
0.0000000000000142
 10
1.37631347735794
 20
863.4953300534785
 30
0.0000000000000142
 10
0.7963612440189536
 20
861.7892961685808
 30
0.0000000000000142
 10
0.5
 20
860.0319092929163
 30
0.0000000000000142
  0
POLYLINE
  5
128
330
1F
100
AcDbEntity
  8
owl_86_48_cutting_plan_sheet2
100
AcDb2dPolyline
 66
     1
 10
0.0
 20
0.0
 30
0.0000000000000142
  0
VERTEX
  5
129
330
128
100
AcDbEntity
  8
owl_86_48_cutting_plan_sheet2
100
AcDbVertex
100
AcDb2dVertex
 10
0.5000000000001137
 20
860.0319092929167
 30
0.0000000000000142
  0
VERTEX
  5
12A
330
128
100
AcDbEntity
  8
owl_86_48_cutting_plan_sheet2
100
AcDbVertex
100
AcDb2dVertex
 10
0.6112028109415633
 20
860.0319092929167
 30
0.0000000000000142
  0
VERTEX
  5
12B
330
128
100
AcDbEntity
  8
owl_86_48_cutting_plan_sheet2
100
AcDbVertex
100
AcDb2dVertex
 10
0.6112028109415633
 20
859.0419054256034
 30
0.0000000000000142
  0
SEQEND
  5
12C
330
128
100
AcDbEntity
  8
owl_86_48_cutting_plan_sheet2
  0
LINE
  5
12D
330
1F
100
AcDbEntity
  8
owl_86_48_cutting_plan_sheet2
100
AcDbLine
 10
0.6112028109415633
 20
859.0419054256034
 30
0.0000000000000142
 11
2.361202810941563
 21
859.0418964018722
 31
0.0000000000000142
  0
POLYLINE
  5
12E
330
1F
100
AcDbEntity
  8
owl_86_48_cutting_plan_sheet2
100
AcDb2dPolyline
 66
     1
 10
0.0
 20
0.0
 30
0.0000000000000142
  0
VERTEX
  5
12F
330
12E
100
AcDbEntity
  8
owl_86_48_cutting_plan_sheet2
100
AcDbVertex
100
AcDb2dVertex
 10
2.361202810941563
 20
859.0418964018722
 30
0.0000000000000142
  0
VERTEX
  5
130
330
12E
100
AcDbEntity
  8
owl_86_48_cutting_plan_sheet2
100
AcDbVertex
100
AcDb2dVertex
 10
2.361202810941563
 20
860.0319092929167
 30
0.0000000000000142
  0
VERTEX
  5
131
330
12E
100
AcDbEntity
  8
owl_86_48_cutting_plan_sheet2
100
AcDbVertex
100
AcDb2dVertex
 10
2.532185439290743
 20
860.0319092929167
 30
0.0000000000000142
  0
SEQEND
  5
132
330
12E
100
AcDbEntity
  8
owl_86_48_cutting_plan_sheet2
  0
MTEXT
  5
133
330
1F
100
AcDbEntity
  8
owl_86_48_cutting_plan_sheet2
100
AcDbMText
 10
23.76870728377264
 20
866.9463827099438
 30
0.0000000000000071
 40
0.4
 41
0.6626506024096386
 71
     1
 72
     1
  1
\fArial;3
 11
-1.0
 21
1.224646799147353E-16
 31
0.0
 73
     2
 44
0.9638554216867472
1001
ACAD
1000
ACAD_MTEXT_DEFINED_HEIGHT_BEGIN
1070
    46
1040
0.4096385542168675
1000
ACAD_MTEXT_DEFINED_HEIGHT_END
  0
CIRCLE
  5
134
330
1F
100
AcDbEntity
  8
owl_86_48_cutting_plan_sheet2
100
AcDbCircle
 10
44.71370778554706
 20
854.2177104504839
 30
0.0000000000000071
 40
0.125
  0
CIRCLE
  5
135
330
1F
100
AcDbEntity
  8
owl_86_48_cutting_plan_sheet2
100
AcDbCircle
 10
2.82405061987879
 20
854.2171904381895
 30
0.0000000000000071
 40
0.125
  0
CIRCLE
  5
136
330
1F
100
AcDbEntity
  8
owl_86_48_cutting_plan_sheet2
100
AcDbCircle
 10
44.53752999691585
 20
857.5718856981844
 30
0.0000000000000071
 40
0.125
  0
CIRCLE
  5
137
330
1F
100
AcDbEntity
  8
owl_86_48_cutting_plan_sheet2
100
AcDbCircle
 10
42.04530158955549
 20
861.9018481221104
 30
0.0000000000000071
 40
0.125
  0
CIRCLE
  5
138
330
1F
100
AcDbEntity
  8
owl_86_48_cutting_plan_sheet2
100
AcDbCircle
 10
38.37036404893274
 20
865.2748143922776
 30
0.0000000000000071
 40
0.125
  0
CIRCLE
  5
139
330
1F
100
AcDbEntity
  8
owl_86_48_cutting_plan_sheet2
100
AcDbCircle
 10
33.74271981171671
 20
867.1405649050494
 30
0.0000000000000071
 40
0.125
  0
CIRCLE
  5
13A
330
1F
100
AcDbEntity
  8
owl_86_48_cutting_plan_sheet2
100
AcDbCircle
 10
28.77978537133902
 20
867.7961447974634
 30
0.0000000000000071
 40
0.125
  0
CIRCLE
  5
13B
330
1F
100
AcDbEntity
  8
owl_86_48_cutting_plan_sheet2
100
AcDbCircle
 10
23.76871156147979
 20
867.896388867375
 30
0.0000000000000071
 40
0.125
  0
CIRCLE
  5
13C
330
1F
100
AcDbEntity
  8
owl_86_48_cutting_plan_sheet2
100
AcDbCircle
 10
18.75764377749704
 20
867.7959213882539
 30
0.0000000000000071
 40
0.125
  0
CIRCLE
  5
13D
330
1F
100
AcDbEntity
  8
owl_86_48_cutting_plan_sheet2
100
AcDbCircle
 10
13.79472074817727
 20
867.1402671551222
 30
0.0000000000000036
 40
0.125
  0
CIRCLE
  5
13E
330
1F
100
AcDbEntity
  8
owl_86_48_cutting_plan_sheet2
100
AcDbCircle
 10
9.167099602752273
 20
865.2744548136341
 30
0.0000000000000071
 40
0.125
  0
CIRCLE
  5
13F
330
1F
100
AcDbEntity
  8
owl_86_48_cutting_plan_sheet2
100
AcDbCircle
 10
5.492223555418377
 20
861.901424765931
 30
0.0000000000000071
 40
0.125
  0
CIRCLE
  5
140
330
1F
100
AcDbEntity
  8
owl_86_48_cutting_plan_sheet2
100
AcDbCircle
 10
3.000112979406367
 20
857.5713951427705
 30
0.0000000000000071
 40
0.125
  0
SPLINE
  5
141
330
1F
100
AcDbEntity
  8
owl_86_48_cutting_plan_sheet2
100
AcDbSpline
210
0.0
220
0.0
230
1.0
 70
     8
 71
     3
 72
    29
 73
    25
 74
     0
 42
0.000000001
 43
0.0000000001
 40
138.9257865376525
 40
138.9257865376525
 40
138.9257865376525
 40
138.9257865376525
 40
143.9319433839301
 40
143.9319433839301
 40
143.9319433839301
 40
147.1185694311365
 40
147.1185694311365
 40
147.1185694311365
 40
150.3085061003973
 40
150.3085061003973
 40
150.3085061003973
 40
153.4934018674265
 40
153.4934018674265
 40
153.4934018674265
 40
156.6538449376223
 40
156.6538449376223
 40
156.6538449376223
 40
159.7794940252844
 40
159.7794940252844
 40
159.7794940252844
 40
162.8764169196955
 40
162.8764169196955
 40
162.8764169196955
 40
164.7573226977144
 40
164.7573226977144
 40
164.7573226977144
 40
164.7573226977144
 10
3.525882131981916
 20
853.7911308323781
 30
0.0000000000000071
 10
3.767631455496257
 20
855.1951803539602
 30
0.0000000000000071
 10
4.209267080680775
 20
856.5748774065943
 30
0.0000000000000071
 10
4.824939111662388
 20
857.879210895068
 30
0.0000000000000071
 10
5.21809053570496
 20
858.7124618244458
 30
0.0000000000000071
 10
5.680395795775439
 20
859.5114872876873
 30
0.0000000000000071
 10
6.205938166069927
 20
860.2622756634646
 30
0.0000000000000071
 10
6.731679880207594
 20
861.0134580674049
 30
0.0000000000000071
 10
7.318605077662369
 20
861.7131213556227
 30
0.0000000000000071
 10
7.959454295001819
 20
862.3416544792609
 30
0.0000000000000071
 10
8.598415724160304
 20
862.9685598007112
 30
0.0000000000000071
 10
9.29014765676061
 20
863.5234452293271
 30
0.0000000000000071
 10
10.01861001814245
 20
863.9788841303598
 30
0.0000000000000071
 10
10.74175695443216
 20
864.4312886317972
 30
0.0000000000000071
 10
11.53686790176744
 20
864.8081283556154
 30
0.0000000000000071
 10
12.37713173632005
 20
865.1107504072189
 30
0.0000000000000071
 10
13.2095229776379
 20
865.410721238133
 30
0.0000000000000071
 10
14.0905937097491
 20
865.6394268133542
 30
0.0000000000000071
 10
15.00697247322671
 20
865.8127787042763
 30
0.0000000000000071
 10
15.91559735122496
 20
865.9847880825714
 30
0.0000000000000071
 10
16.85232732586064
 20
866.1012697500579
 30
0.0000000000000071
 10
17.81132621810843
 20
866.1789954659821
 30
0.0000000000000071
 10
18.39462773014156
 20
866.2265419763884
 30
0.0000000000000071
 10
18.98517904836876
 20
866.2593684928837
 30
0.0000000000000071
 10
19.58307569749741
 20
866.2824264690072
 30
0.0000000000000071
  0
LINE
  5
142
330
1F
100
AcDbEntity
  8
owl_86_48_cutting_plan_sheet2
100
AcDbLine
 10
19.58307569749741
 20
866.2824264690072
 30
0.0000000000000071
 11
19.5830756974965
 21
867.2905374799053
 31
0.0000000000000071
  0
POLYLINE
  5
143
330
1F
100
AcDbEntity
  8
owl_86_48_cutting_plan_sheet2
100
AcDb2dPolyline
 66
     1
 10
0.0
 20
0.0
 30
0.0000000000000071
  0
VERTEX
  5
144
330
143
100
AcDbEntity
  8
owl_86_48_cutting_plan_sheet2
100
AcDbVertex
100
AcDb2dVertex
 10
19.5830756974965
 20
867.2905374799053
 30
0.0000000000000071
  0
VERTEX
  5
145
330
143
100
AcDbEntity
  8
owl_86_48_cutting_plan_sheet2
100
AcDbVertex
100
AcDb2dVertex
 10
19.9580756974965
 20
867.2905374799053
 30
0.0000000000000071
  0
VERTEX
  5
146
330
143
100
AcDbEntity
  8
owl_86_48_cutting_plan_sheet2
100
AcDbVertex
100
AcDb2dVertex
 10
19.95807569749923
 20
866.29562194205
 30
0.0000000000000071
  0
SEQEND
  5
147
330
143
100
AcDbEntity
  8
owl_86_48_cutting_plan_sheet2
  0
SPLINE
  5
148
330
1F
100
AcDbEntity
  8
owl_86_48_cutting_plan_sheet2
100
AcDbSpline
210
0.0
220
0.0
230
1.0
 70
     8
 71
     3
 72
    11
 73
     7
 74
     0
 42
0.000000001
 43
0.0000000001
 40
167.1353492464679
 40
167.1353492464679
 40
167.1353492464679
 40
167.1353492464679
 40
171.0249690075402
 40
171.0249690075402
 40
171.0249690075402
 40
174.9280014504359
 40
174.9280014504359
 40
174.9280014504359
 40
174.9280014504359
 10
19.95807569749923
 20
866.29562194205
 30
0.0000000000000071
 10
21.20083870955057
 20
866.3353248595799
 30
0.0000000000000071
 10
22.47509640858334
 20
866.3376688794934
 30
0.0000000000000071
 10
23.78168977801749
 20
866.3464416484976
 30
0.0000000000000071
 10
25.05205815343413
 20
866.3376961106087
 30
0.0000000000000071
 10
26.3323319582538
 20
866.3355078695627
 30
0.0000000000000071
 10
27.58307569749616
 20
866.2956244243313
 30
0.0000000000000071
  0
LINE
  5
149
330
1F
100
AcDbEntity
  8
owl_86_48_cutting_plan_sheet2
100
AcDbLine
 10
27.58307569749616
 20
866.2956244243313
 30
0.0000000000000071
 11
27.5830756974965
 21
867.2905537629595
 31
0.0000000000000071
  0
POLYLINE
  5
14A
330
1F
100
AcDbEntity
  8
owl_86_48_cutting_plan_sheet2
100
AcDb2dPolyline
 66
     1
 10
0.0
 20
0.0
 30
0.0000000000000071
  0
VERTEX
  5
14B
330
14A
100
AcDbEntity
  8
owl_86_48_cutting_plan_sheet2
100
AcDbVertex
100
AcDb2dVertex
 10
27.5830756974965
 20
867.2905537629595
 30
0.0000000000000071
  0
VERTEX
  5
14C
330
14A
100
AcDbEntity
  8
owl_86_48_cutting_plan_sheet2
100
AcDbVertex
100
AcDb2dVertex
 10
27.9580756974965
 20
867.2905537629595
 30
0.0000000000000071
  0
VERTEX
  5
14D
330
14A
100
AcDbEntity
  8
owl_86_48_cutting_plan_sheet2
100
AcDbVertex
100
AcDb2dVertex
 10
27.95807569749559
 20
866.2824572682138
 30
0.0000000000000071
  0
SEQEND
  5
14E
330
14A
100
AcDbEntity
  8
owl_86_48_cutting_plan_sheet2
  0
SPLINE
  5
14F
330
1F
100
AcDbEntity
  8
owl_86_48_cutting_plan_sheet2
100
AcDbSpline
210
0.0
220
0.0
230
1.0
 70
     8
 71
     3
 72
    29
 73
    25
 74
     0
 42
0.000000001
 43
0.0000000001
 40
177.3060272838098
 40
177.3060272838098
 40
177.3060272838098
 40
177.3060272838098
 40
179.1827372859728
 40
179.1827372859728
 40
179.1827372859728
 40
182.2792800917616
 40
182.2792800917616
 40
182.2792800917616
 40
185.4045548390384
 40
185.4045548390384
 40
185.4045548390384
 40
188.5646236889323
 40
188.5646236889323
 40
188.5646236889323
 40
191.7491458701271
 40
191.7491458701271
 40
191.7491458701271
 40
194.9387157582372
 40
194.9387157582372
 40
194.9387157582372
 40
198.1249839256701
 40
198.1249839256701
 40
198.1249839256701
 40
203.1305871080991
 40
203.1305871080991
 40
203.1305871080991
 40
203.1305871080991
 10
27.95807569749559
 20
866.2824572682138
 30
0.0000000000000071
 10
28.55644007522733
 20
866.259434533429
 30
0.0000000000000071
 10
29.14706359997354
 20
866.2266715770791
 30
0.0000000000000071
 10
29.72556225444464
 20
866.179248878572
 30
0.0000000000000071
 10
30.6845828647962
 20
866.1015637190943
 30
0.0000000000000071
 10
31.62133646579252
 20
865.985121185292
 30
0.0000000000000071
 10
32.52998708815085
 20
865.813148890612
 30
0.0000000000000071
 10
33.44639451238277
 20
865.6398338919574
 30
0.0000000000000071
 10
34.32749626024975
 20
865.4111624012833
 30
0.0000000000000071
 10
35.15992067974571
 20
865.111221709871
 30
0.0000000000000071
 10
36.00021916294065
 20
864.8086296686329
 30
0.0000000000000071
 10
36.79536705846533
 20
864.4318158802452
 30
0.0000000000000071
 10
37.51855239719453
 20
863.9794316753903
 30
0.0000000000000071
 10
38.24705431138
 20
863.5240126656745
 30
0.0000000000000071
 10
38.93882789409361
 20
862.969142996014
 30
0.0000000000000071
 10
39.57783250731654
 20
862.342248735838
 30
0.0000000000000071
 10
40.21872642098856
 20
861.7137253340102
 30
0.0000000000000071
 10
40.80569736646339
 20
861.0140668296656
 30
0.0000000000000071
 10
41.33148507464591
 20
860.2628848931662
 30
0.0000000000000071
 10
41.85707481042755
 20
859.5120949975246
 30
0.0000000000000071
 10
42.31942644392734
 20
858.7130644752549
 30
0.0000000000000071
 10
42.71262157196588
 20
857.879805112606
 30
0.0000000000000071
 10
43.32836329464715
 20
856.5754555570803
 30
0.0000000000000071
 10
43.77005800517691
 20
855.195741127353
 30
0.0000000000000071
 10
44.01184748579738
 20
853.7916666666665
 30
0.0000000000000071
  0
POLYLINE
  5
150
330
1F
100
AcDbEntity
  8
owl_86_48_cutting_plan_sheet2
100
AcDb2dPolyline
 66
     1
 10
0.0
 20
0.0
 30
0.0000000000000071
  0
VERTEX
  5
151
330
150
100
AcDbEntity
  8
owl_86_48_cutting_plan_sheet2
100
AcDbVertex
100
AcDb2dVertex
 10
44.01184748579738
 20
853.7916666666665
 30
0.0000000000000071
  0
VERTEX
  5
152
330
150
100
AcDbEntity
  8
owl_86_48_cutting_plan_sheet2
100
AcDbVertex
100
AcDb2dVertex
 10
44.15999069977693
 20
853.7916666666666
 30
0.0000000000000071
  0
VERTEX
  5
153
330
150
100
AcDbEntity
  8
owl_86_48_cutting_plan_sheet2
100
AcDbVertex
100
AcDb2dVertex
 10
44.15999069977693
 20
852.7916666666666
 30
0.0000000000000071
  0
VERTEX
  5
154
330
150
100
AcDbEntity
  8
owl_86_48_cutting_plan_sheet2
100
AcDbVertex
100
AcDb2dVertex
 10
44.14852030309294
 20
852.7966519695656
 30
0.0000000000000071
  0
SEQEND
  5
155
330
150
100
AcDbEntity
  8
owl_86_48_cutting_plan_sheet2
  0
LINE
  5
156
330
1F
100
AcDbEntity
  8
owl_86_48_cutting_plan_sheet2
100
AcDbLine
 10
44.14852030309294
 20
852.7966519695656
 30
0.0000000000000071
 11
45.90999069977693
 21
852.8016578886808
 31
0.0000000000000071
  0
POLYLINE
  5
157
330
1F
100
AcDbEntity
  8
owl_86_48_cutting_plan_sheet2
100
AcDb2dPolyline
 66
     1
 10
0.0
 20
0.0
 30
0.0000000000000071
  0
VERTEX
  5
158
330
157
100
AcDbEntity
  8
owl_86_48_cutting_plan_sheet2
100
AcDbVertex
100
AcDb2dVertex
 10
45.90999069977693
 20
852.8016578886808
 30
0.0000000000000071
  0
VERTEX
  5
159
330
157
100
AcDbEntity
  8
owl_86_48_cutting_plan_sheet2
100
AcDbVertex
100
AcDb2dVertex
 10
45.90999069977693
 20
853.7916666666666
 30
0.0000000000000071
  0
VERTEX
  5
15A
330
157
100
AcDbEntity
  8
owl_86_48_cutting_plan_sheet2
100
AcDbVertex
100
AcDb2dVertex
 10
46.0377370445716
 20
853.7916666666665
 30
0.0000000000000071
  0
SEQEND
  5
15B
330
157
100
AcDbEntity
  8
owl_86_48_cutting_plan_sheet2
  0
SPLINE
  5
15C
330
1F
100
AcDbEntity
  8
owl_86_48_cutting_plan_sheet2
100
AcDbSpline
210
0.0
220
0.0
230
1.0
 70
     8
 71
     3
 72
    53
 73
    49
 74
     0
 42
0.000000001
 43
0.0000000001
 40
207.1694262383479
 40
207.1694262383479
 40
207.1694262383479
 40
207.1694262383479
 40
212.5307000719351
 40
212.5307000719351
 40
212.5307000719351
 40
215.716968092121
 40
215.716968092121
 40
215.716968092121
 40
218.9065378328317
 40
218.9065378328317
 40
218.9065378328317
 40
222.0910598668603
 40
222.0910598668603
 40
222.0910598668603
 40
225.2511285707182
 40
225.2511285707182
 40
225.2511285707182
 40
228.3764031735668
 40
228.3764031735668
 40
228.3764031735668
 40
231.4729458362552
 40
231.4729458362552
 40
231.4729458362552
 40
237.6437255782101
 40
237.6437255782101
 40
237.6437255782101
 40
243.8064800066768
 40
243.8064800066768
 40
243.8064800066768
 40
246.903402849659
 40
246.903402849659
 40
246.903402849659
 40
250.0290518854151
 40
250.0290518854151
 40
250.0290518854151
 40
253.1894949031271
 40
253.1894949031271
 40
253.1894949031271
 40
256.3743906172664
 40
256.3743906172664
 40
256.3743906172664
 40
259.5643272335537
 40
259.5643272335537
 40
259.5643272335537
 40
262.7509532278415
 40
262.7509532278415
 40
262.7509532278415
 40
268.1127764600641
 40
268.1127764600641
 40
268.1127764600641
 40
268.1127764600641
 10
46.0377370445716
 20
853.7916666666665
 30
0.0000000000000071
 10
45.77897812812444
 20
855.4995110518942
 30
0.0000000000000071
 10
45.26030050212933
 20
857.1675249628198
 30
0.0000000000000071
 10
44.52134326319833
 20
858.7333423664292
 30
0.0000000000000071
 10
44.08055662347942
 20
859.6674173855575
 30
0.0000000000000071
 10
43.56173205018354
 20
860.5644319983755
 30
0.0000000000000071
 10
42.96993622259208
 20
861.4098277146672
 30
0.0000000000000071
 10
42.37790909820296
 20
862.2555756931355
 30
0.0000000000000071
 10
41.71278780510772
 20
863.0496992301396
 30
0.0000000000000071
 10
40.97827732100779
 20
863.7700982810655
 30
0.0000000000000071
 10
40.24597698592811
 20
864.4883743818725
 30
0.0000000000000071
 10
39.44316971951343
 20
865.1347610769831
 30
0.0000000000000071
 10
38.57898966605762
 20
865.6751535862019
 30
0.0000000000000071
 10
37.72094557379251
 20
866.2117669026441
 30
0.0000000000000071
 10
36.79671546762847
 20
866.6474409358174
 30
0.0000000000000071
 10
35.83771876158107
 20
866.9928672025876
 30
0.0000000000000071
 10
34.88733935506161
 20
867.3352263857082
 30
0.0000000000000071
 10
33.90313192141502
 20
867.5888393314114
 30
0.0000000000000071
 10
32.90180557520239
 20
867.778282731521
 30
0.0000000000000071
 10
31.90877469604197
 20
867.9661815538102
 30
0.0000000000000071
 10
30.90160856936586
 20
868.0904950547491
 30
0.0000000000000071
 10
29.88713800267237
 20
868.1727115136833
 30
0.0000000000000071
 10
27.86460841535416
 20
868.3369942276139
 30
0.0000000000000071
 10
25.81473616653147
 20
868.3320167988327
 30
0.0000000000000071
 10
23.76749107766045
 20
868.3463912470895
 30
0.0000000000000071
 10
21.71028665378253
 20
868.3319455919583
 30
0.0000000000000071
 10
19.67162364431874
 20
868.3365847605061
 30
0.0000000000000071
 10
17.64966308195403
 20
868.1724510161283
 30
0.0000000000000071
 10
16.63521396117198
 20
868.0901915322967
 30
0.0000000000000071
 10
15.62807129150337
 20
867.9658357275185
 30
0.0000000000000071
 10
14.63506638497142
 20
867.7778959683396
 30
0.0000000000000071
 10
13.63376918911058
 20
867.5884118492149
 30
0.0000000000000071
 10
12.64959373328622
 20
867.3347601541285
 30
0.0000000000000071
 10
11.69924943336719
 20
866.9923655600444
 30
0.0000000000000071
 10
10.74028948881289
 20
866.6469040422614
 30
0.0000000000000071
 10
9.816099400125267
 20
866.2111984869514
 30
0.0000000000000071
 10
8.958098057117695
 20
865.6745593293655
 30
0.0000000000000071
 10
8.093962118627587
 20
865.134141459478
 30
0.0000000000000071
 10
7.291201299687486
 20
864.4877348910737
 30
0.0000000000000071
 10
6.558948661267095
 20
863.7694443692235
 30
0.0000000000000071
 10
5.824487626891596
 20
863.049032434899
 30
0.0000000000000071
 10
5.159416508851336
 20
862.2549014939418
 30
0.0000000000000071
 10
4.56743954841852
 20
861.4091506697106
 30
0.0000000000000071
 10
3.975695428800691
 20
860.5637543432596
 30
0.0000000000000071
 10
3.456922086562372
 20
859.6667438218985
 30
0.0000000000000071
 10
3.01618413985716
 20
858.7326776208212
 30
0.0000000000000071
 10
2.277315978754586
 20
857.1668908252055
 30
0.0000000000000071
 10
1.75871409893557
 20
855.4989187845407
 30
0.0000000000000071
 10
1.5
 20
853.791130832378
 30
0.0000000000000071
  0
POLYLINE
  5
15D
330
1F
100
AcDbEntity
  8
owl_86_48_cutting_plan_sheet2
100
AcDb2dPolyline
 66
     1
 10
0.0
 20
0.0
 30
0.0000000000000107
  0
VERTEX
  5
15E
330
15D
100
AcDbEntity
  8
owl_86_48_cutting_plan_sheet2
100
AcDbVertex
100
AcDb2dVertex
 10
1.5
 20
853.7911308323781
 30
0.0000000000000107
  0
VERTEX
  5
15F
330
15D
100
AcDbEntity
  8
owl_86_48_cutting_plan_sheet2
100
AcDbVertex
100
AcDb2dVertex
 10
1.627766302021428
 20
853.7911308323781
 30
0.0000000000000107
  0
VERTEX
  5
160
330
15D
100
AcDbEntity
  8
owl_86_48_cutting_plan_sheet2
100
AcDbVertex
100
AcDb2dVertex
 10
1.627766302021428
 20
852.801139610364
 30
0.0000000000000107
  0
SEQEND
  5
161
330
15D
100
AcDbEntity
  8
owl_86_48_cutting_plan_sheet2
  0
LINE
  5
162
330
1F
100
AcDbEntity
  8
owl_86_48_cutting_plan_sheet2
100
AcDbLine
 10
1.627766302021428
 20
852.801139610364
 30
0.0000000000000071
 11
3.377766302021541
 21
852.8011600923309
 31
0.0000000000000071
  0
POLYLINE
  5
163
330
1F
100
AcDbEntity
  8
owl_86_48_cutting_plan_sheet2
100
AcDb2dPolyline
 66
     1
 10
0.0
 20
0.0
 30
0.0000000000000071
  0
VERTEX
  5
164
330
163
100
AcDbEntity
  8
owl_86_48_cutting_plan_sheet2
100
AcDbVertex
100
AcDb2dVertex
 10
3.377766302021541
 20
852.8011600923309
 30
0.0000000000000071
  0
VERTEX
  5
165
330
163
100
AcDbEntity
  8
owl_86_48_cutting_plan_sheet2
100
AcDbVertex
100
AcDb2dVertex
 10
3.377766302021428
 20
853.7911308323781
 30
0.0000000000000071
  0
VERTEX
  5
166
330
163
100
AcDbEntity
  8
owl_86_48_cutting_plan_sheet2
100
AcDbVertex
100
AcDb2dVertex
 10
3.525882131981916
 20
853.7911308323781
 30
0.0000000000000071
  0
SEQEND
  5
167
330
163
100
AcDbEntity
  8
owl_86_48_cutting_plan_sheet2
  0
LINE
  5
168
330
1F
100
AcDbEntity
  8
owl_86_48_cutting_plan_sheet2
100
AcDbLine
 10
2.000000005457537
 20
842.0
 30
0.0
 11
83.44865997562886
 21
842.0
 31
0.0
  0
LINE
  5
169
330
1F
100
AcDbEntity
  8
owl_86_48_cutting_plan_sheet2
100
AcDbLine
 10
2.000000005457537
 20
834.0
 30
0.0
 11
83.44865997562886
 21
834.0
 31
0.0
  0
LINE
  5
16A
330
1F
100
AcDbEntity
  8
owl_86_48_cutting_plan_sheet2
100
AcDbLine
 10
84.9486599758809
 20
833.5
 30
0.0
 11
0.5
 21
833.5
 31
0.0
  0
LINE
  5
16B
330
1F
100
AcDbEntity
  8
owl_86_48_cutting_plan_sheet2
100
AcDbLine
 10
0.5
 20
833.5
 30
0.0
 11
0.5
 21
842.5
 31
0.0
  0
LINE
  5
16C
330
1F
100
AcDbEntity
  8
owl_86_48_cutting_plan_sheet2
100
AcDbLine
 10
0.5
 20
842.5
 30
0.0
 11
84.9486599758809
 21
842.5
 31
0.0
  0
LINE
  5
16D
330
1F
100
AcDbEntity
  8
owl_86_48_cutting_plan_sheet2
100
AcDbLine
 10
84.9486599758809
 20
842.5
 30
0.0
 11
84.9486599758809
 21
833.5
 31
0.0
  0
POLYLINE
  5
16E
330
1F
100
AcDbEntity
  8
owl_86_48_cutting_plan_sheet2
100
AcDb2dPolyline
 66
     1
 10
0.0
 20
0.0
 30
0.0
  0
VERTEX
  5
16F
330
16E
100
AcDbEntity
  8
owl_86_48_cutting_plan_sheet2
100
AcDbVertex
100
AcDb2dVertex
 10
0.0
 20
833.0
 30
0.0
  0
VERTEX
  5
170
330
16E
100
AcDbEntity
  8
owl_86_48_cutting_plan_sheet2
100
AcDbVertex
100
AcDb2dVertex
 10
96.0
 20
833.0
 30
0.0
  0
VERTEX
  5
171
330
16E
100
AcDbEntity
  8
owl_86_48_cutting_plan_sheet2
100
AcDbVertex
100
AcDb2dVertex
 10
96.0
 20
881.0
 30
0.0
  0
VERTEX
  5
172
330
16E
100
AcDbEntity
  8
owl_86_48_cutting_plan_sheet2
100
AcDbVertex
100
AcDb2dVertex
 10
0.0
 20
881.0
 30
0.0
  0
VERTEX
  5
173
330
16E
100
AcDbEntity
  8
owl_86_48_cutting_plan_sheet2
100
AcDbVertex
100
AcDb2dVertex
 10
0.0
 20
833.0
 30
0.0
  0
SEQEND
  5
174
330
16E
100
AcDbEntity
  8
owl_86_48_cutting_plan_sheet2
  0
ENDSEC
  0
SECTION
  2
OBJECTS
  0
DICTIONARY
  5
C
330
0
100
AcDbDictionary
281
     1
  3
ACAD_DETAILVIEWSTYLE
350
1B0
  3
ACAD_GROUP
350
D
  3
ACAD_LAYOUT
350
1A
  3
ACAD_MATERIAL
350
43
  3
ACAD_MLEADERSTYLE
350
1AF
  3
ACAD_MLINESTYLE
350
17
  3
ACAD_PLOTSETTINGS
350
19
  3
ACAD_PLOTSTYLENAME
350
E
  3
ACAD_SCALELIST
350
47
  3
ACAD_SECTIONVIEWSTYLE
350
1B1
  3
ACAD_TABLESTYLE
350
1AE
  3
ACAD_VISUALSTYLE
350
2A
  3
AcDbVariableDictionary
350
175
  0
DICTIONARY
  5
1B0
102
{ACAD_REACTORS
330
C
102
}
330
C
100
AcDbDictionary
281
     1
  0
DICTIONARY
  5
D
102
{ACAD_REACTORS
330
C
102
}
330
C
100
AcDbDictionary
281
     1
  0
DICTIONARY
  5
1A
102
{ACAD_REACTORS
330
C
102
}
330
C
100
AcDbDictionary
281
     1
  3
Layout1
350
1E
  3
Layout2
350
26
  3
Model
350
22
  0
DICTIONARY
  5
43
102
{ACAD_REACTORS
330
C
102
}
330
C
100
AcDbDictionary
281
     1
  3
ByBlock
350
45
  3
ByLayer
350
44
  3
Global
350
46
  0
DICTIONARY
  5
1AF
102
{ACAD_REACTORS
330
C
102
}
330
C
100
AcDbDictionary
281
     1
  0
DICTIONARY
  5
17
102
{ACAD_REACTORS
330
C
102
}
330
C
100
AcDbDictionary
281
     1
  3
Standard
350
18
  0
DICTIONARY
  5
19
102
{ACAD_REACTORS
330
C
102
}
330
C
100
AcDbDictionary
281
     1
  0
ACDBDICTIONARYWDFLT
  5
E
102
{ACAD_REACTORS
330
C
102
}
330
C
100
AcDbDictionary
281
     1
  3
Normal
350
F
100
AcDbDictionaryWithDefault
340
F
  0
DICTIONARY
  5
47
102
{ACAD_REACTORS
330
C
102
}
330
C
100
AcDbDictionary
281
     1
  3
A0
350
48
  3
A1
350
49
  3
A2
350
4A
  3
A3
350
4B
  3
A4
350
4C
  3
A5
350
4D
  3
A6
350
4E
  3
A7
350
4F
  3
A8
350
50
  3
A9
350
51
  3
B0
350
52
  3
B1
350
53
  3
B2
350
54
  3
B3
350
55
  3
B4
350
56
  3
B5
350
57
  3
B6
350
58
  3
B7
350
59
  3
B8
350
5A
  3
B9
350
5B
  3
C0
350
5C
  3
C1
350
5D
  3
C2
350
5E
  3
C3
350
5F
  3
C4
350
60
  3
C5
350
61
  3
C6
350
62
  3
C7
350
63
  3
C8
350
64
  3
C9
350
65
  3
D0
350
66
  3
D1
350
67
  3
D2
350
68
  0
DICTIONARY
  5
1B1
102
{ACAD_REACTORS
330
C
102
}
330
C
100
AcDbDictionary
281
     1
  0
DICTIONARY
  5
1AE
102
{ACAD_REACTORS
330
C
102
}
330
C
100
AcDbDictionary
281
     1
  0
DICTIONARY
  5
2A
102
{ACAD_REACTORS
330
C
102
}
330
C
100
AcDbDictionary
281
     1
  3
2dWireframe
350
2F
  3
Basic
350
32
  3
Brighten
350
36
  3
ColorChange
350
3A
  3
Conceptual
350
34
  3
Dim
350
35
  3
EdgeColorOff
350
3D
  3
Facepattern
350
39
  3
Flat
350
2B
  3
FlatWithEdges
350
2C
  3
Gouraud
350
2D
  3
GouraudWithEdges
350
2E
  3
Hidden
350
31
  3
JitterOff
350
3B
  3
Linepattern
350
38
  3
OverhangOff
350
3C
  3
Realistic
350
33
  3
Shaded
350
42
  3
Shaded with edges
350
41
  3
Shades of Gray
350
3E
  3
Sketchy
350
3F
  3
Thicken
350
37
  3
Wireframe
350
30
  3
X-Ray
350
40
  0
DICTIONARY
  5
175
102
{ACAD_REACTORS
330
C
102
}
330
C
100
AcDbDictionary
281
     1
  3
CANNOSCALE
350
176
  3
MSLTSCALE
350
177
  0
LAYOUT
  5
1E
102
{ACAD_REACTORS
330
1A
102
}
330
1A
100
AcDbPlotSettings
  1

  2
none_device
  4

  6

 40
0.0
 41
0.0
 42
0.0
 43
0.0
 44
0.0
 45
0.0
 46
0.0
 47
0.0
 48
0.0
 49
0.0
140
0.0
141
0.0
142
1.0
143
1.0
 70
   688
 72
     0
 73
     0
 74
     5
  7

 75
    16
 76
     0
 77
     2
 78
   300
147
1.0
148
0.0
149
0.0
100
AcDbLayout
  1
Layout1
 70
     1
 71
     1
 10
0.0
 20
0.0
 11
12.0
 21
9.0
 12
0.0
 22
0.0
 32
0.0
 14
1.000000000000000E+20
 24
1.000000000000000E+20
 34
1.000000000000000E+20
 15
-1.000000000000000E+20
 25
-1.000000000000000E+20
 35
-1.000000000000000E+20
146
0.0
 13
0.0
 23
0.0
 33
0.0
 16
1.0
 26
0.0
 36
0.0
 17
0.0
 27
1.0
 37
0.0
 76
     0
330
1B
  0
LAYOUT
  5
26
102
{ACAD_REACTORS
330
1A
102
}
330
1A
100
AcDbPlotSettings
  1

  2
none_device
  4

  6

 40
0.0
 41
0.0
 42
0.0
 43
0.0
 44
0.0
 45
0.0
 46
0.0
 47
0.0
 48
0.0
 49
0.0
140
0.0
141
0.0
142
1.0
143
1.0
 70
   688
 72
     0
 73
     0
 74
     5
  7

 75
    16
 76
     0
 77
     2
 78
   300
147
1.0
148
0.0
149
0.0
100
AcDbLayout
  1
Layout2
 70
     1
 71
     2
 10
0.0
 20
0.0
 11
0.0
 21
0.0
 12
0.0
 22
0.0
 32
0.0
 14
0.0
 24
0.0
 34
0.0
 15
0.0
 25
0.0
 35
0.0
146
0.0
 13
0.0
 23
0.0
 33
0.0
 16
1.0
 26
0.0
 36
0.0
 17
0.0
 27
1.0
 37
0.0
 76
     0
330
23
  0
LAYOUT
  5
22
102
{ACAD_REACTORS
330
1A
102
}
330
1A
100
AcDbPlotSettings
  1

  2
none_device
  4
Letter_(8.50_x_11.00_Inches)
  6

 40
6.35
 41
6.35
 42
6.35000508
 43
6.35000508
 44
215.9
 45
279.4
 46
0.0
 47
0.0
 48
0.0
 49
0.0
140
0.0
141
0.0
142
1.0
143
1.0
 70
  1712
 72
     0
 73
     0
 74
     0
  7

 75
     0
 76
     0
 77
     2
 78
   300
147
1.0
148
0.0
149
0.0
100
AcDbLayout
  1
Model
 70
     1
 71
     0
 10
0.0
 20
0.0
 11
12.0
 21
9.0
 12
0.0
 22
0.0
 32
0.0
 14
0.0
 24
833.0
 34
0.0
 15
96.0
 25
881.0
 35
0.033566068196488
146
0.0
 13
0.0
 23
0.0
 33
0.0
 16
1.0
 26
0.0
 36
0.0
 17
0.0
 27
1.0
 37
0.0
 76
     0
330
1F
331
29
  0
MATERIAL
  5
45
102
{ACAD_REACTORS
330
43
102
}
102
{ACAD_XDICTIONARY
360
1AA
102
}
330
43
100
AcDbMaterial
  1
ByBlock
  0
MATERIAL
  5
44
102
{ACAD_REACTORS
330
43
102
}
102
{ACAD_XDICTIONARY
360
1A8
102
}
330
43
100
AcDbMaterial
  1
ByLayer
  0
MATERIAL
  5
46
102
{ACAD_REACTORS
330
43
102
}
102
{ACAD_XDICTIONARY
360
1AC
102
}
330
43
100
AcDbMaterial
  1
Global
  0
MLINESTYLE
  5
18
102
{ACAD_REACTORS
330
17
102
}
330
17
100
AcDbMlineStyle
  2
Standard
 70
     0
  3

 62
   256
 51
90.0
 52
90.0
 71
     2
 49
0.5
 62
   256
  6
BYLAYER
 49
-0.5
 62
   256
  6
BYLAYER
  0
ACDBPLACEHOLDER
  5
F
102
{ACAD_REACTORS
330
E
102
}
330
E
  0
SCALE
  5
48
102
{ACAD_REACTORS
330
47
102
}
330
47
100
AcDbScale
 70
     0
300
1:1
140
1.0
141
1.0
290
     1
  0
SCALE
  5
49
102
{ACAD_REACTORS
330
47
102
}
330
47
100
AcDbScale
 70
     0
300
1:2
140
1.0
141
2.0
290
     0
  0
SCALE
  5
4A
102
{ACAD_REACTORS
330
47
102
}
330
47
100
AcDbScale
 70
     0
300
1:4
140
1.0
141
4.0
290
     0
  0
SCALE
  5
4B
102
{ACAD_REACTORS
330
47
102
}
330
47
100
AcDbScale
 70
     0
300
1:5
140
1.0
141
5.0
290
     0
  0
SCALE
  5
4C
102
{ACAD_REACTORS
330
47
102
}
330
47
100
AcDbScale
 70
     0
300
1:8
140
1.0
141
8.0
290
     0
  0
SCALE
  5
4D
102
{ACAD_REACTORS
330
47
102
}
330
47
100
AcDbScale
 70
     0
300
1:10
140
1.0
141
10.0
290
     0
  0
SCALE
  5
4E
102
{ACAD_REACTORS
330
47
102
}
330
47
100
AcDbScale
 70
     0
300
1:16
140
1.0
141
16.0
290
     0
  0
SCALE
  5
4F
102
{ACAD_REACTORS
330
47
102
}
330
47
100
AcDbScale
 70
     0
300
1:20
140
1.0
141
20.0
290
     0
  0
SCALE
  5
50
102
{ACAD_REACTORS
330
47
102
}
330
47
100
AcDbScale
 70
     0
300
1:30
140
1.0
141
30.0
290
     0
  0
SCALE
  5
51
102
{ACAD_REACTORS
330
47
102
}
330
47
100
AcDbScale
 70
     0
300
1:40
140
1.0
141
40.0
290
     0
  0
SCALE
  5
52
102
{ACAD_REACTORS
330
47
102
}
330
47
100
AcDbScale
 70
     0
300
1:50
140
1.0
141
50.0
290
     0
  0
SCALE
  5
53
102
{ACAD_REACTORS
330
47
102
}
330
47
100
AcDbScale
 70
     0
300
1:100
140
1.0
141
100.0
290
     0
  0
SCALE
  5
54
102
{ACAD_REACTORS
330
47
102
}
330
47
100
AcDbScale
 70
     0
300
2:1
140
2.0
141
1.0
290
     0
  0
SCALE
  5
55
102
{ACAD_REACTORS
330
47
102
}
330
47
100
AcDbScale
 70
     0
300
4:1
140
4.0
141
1.0
290
     0
  0
SCALE
  5
56
102
{ACAD_REACTORS
330
47
102
}
330
47
100
AcDbScale
 70
     0
300
8:1
140
8.0
141
1.0
290
     0
  0
SCALE
  5
57
102
{ACAD_REACTORS
330
47
102
}
330
47
100
AcDbScale
 70
     0
300
10:1
140
10.0
141
1.0
290
     0
  0
SCALE
  5
58
102
{ACAD_REACTORS
330
47
102
}
330
47
100
AcDbScale
 70
     0
300
100:1
140
100.0
141
1.0
290
     0
  0
SCALE
  5
59
102
{ACAD_REACTORS
330
47
102
}
330
47
100
AcDbScale
 70
     0
300
1/128" = 1'-0"
140
0.0078125
141
12.0
290
     0
  0
SCALE
  5
5A
102
{ACAD_REACTORS
330
47
102
}
330
47
100
AcDbScale
 70
     0
300
1/64" = 1'-0"
140
0.015625
141
12.0
290
     0
  0
SCALE
  5
5B
102
{ACAD_REACTORS
330
47
102
}
330
47
100
AcDbScale
 70
     0
300
1/32" = 1'-0"
140
0.03125
141
12.0
290
     0
  0
SCALE
  5
5C
102
{ACAD_REACTORS
330
47
102
}
330
47
100
AcDbScale
 70
     0
300
1/16" = 1'-0"
140
0.0625
141
12.0
290
     0
  0
SCALE
  5
5D
102
{ACAD_REACTORS
330
47
102
}
330
47
100
AcDbScale
 70
     0
300
3/32" = 1'-0"
140
0.09375
141
12.0
290
     0
  0
SCALE
  5
5E
102
{ACAD_REACTORS
330
47
102
}
330
47
100
AcDbScale
 70
     0
300
1/8" = 1'-0"
140
0.125
141
12.0
290
     0
  0
SCALE
  5
5F
102
{ACAD_REACTORS
330
47
102
}
330
47
100
AcDbScale
 70
     0
300
3/16" = 1'-0"
140
0.1875
141
12.0
290
     0
  0
SCALE
  5
60
102
{ACAD_REACTORS
330
47
102
}
330
47
100
AcDbScale
 70
     0
300
1/4" = 1'-0"
140
0.25
141
12.0
290
     0
  0
SCALE
  5
61
102
{ACAD_REACTORS
330
47
102
}
330
47
100
AcDbScale
 70
     0
300
3/8" = 1'-0"
140
0.375
141
12.0
290
     0
  0
SCALE
  5
62
102
{ACAD_REACTORS
330
47
102
}
330
47
100
AcDbScale
 70
     0
300
1/2" = 1'-0"
140
0.5
141
12.0
290
     0
  0
SCALE
  5
63
102
{ACAD_REACTORS
330
47
102
}
330
47
100
AcDbScale
 70
     0
300
3/4" = 1'-0"
140
0.75
141
12.0
290
     0
  0
SCALE
  5
64
102
{ACAD_REACTORS
330
47
102
}
330
47
100
AcDbScale
 70
     0
300
1" = 1'-0"
140
1.0
141
12.0
290
     0
  0
SCALE
  5
65
102
{ACAD_REACTORS
330
47
102
}
330
47
100
AcDbScale
 70
     0
300
1-1/2" = 1'-0"
140
1.5
141
12.0
290
     0
  0
SCALE
  5
66
102
{ACAD_REACTORS
330
47
102
}
330
47
100
AcDbScale
 70
     0
300
3" = 1'-0"
140
3.0
141
12.0
290
     0
  0
SCALE
  5
67
102
{ACAD_REACTORS
330
47
102
}
330
47
100
AcDbScale
 70
     0
300
6" = 1'-0"
140
6.0
141
12.0
290
     0
  0
SCALE
  5
68
102
{ACAD_REACTORS
330
47
102
}
330
47
100
AcDbScale
 70
     0
300
1'-0" = 1'-0"
140
12.0
141
12.0
290
     0
  0
VISUALSTYLE
  5
2F
102
{ACAD_REACTORS
330
2A
102
}
102
{ACAD_XDICTIONARY
360
180
102
}
330
2A
100
AcDbVisualStyle
  2
2dWireframe
 70
     4
 71
     0
 72
     2
 73
     0
 90
        0
 40
0.6
 41
30.0
 62
     5
 63
     7
421
 16777215
 74
     1
 91
        4
 64
     7
 65
   257
 75
     1
175
     1
 42
1.0
 92
        0
 66
   257
 43
1.0
 76
     1
 77
     6
 78
     2
 67
     7
 79
     5
170
     0
171
     0
290
     0
174
     0
 93
        1
 44
0.0
173
     0
291
     0
 45
0.0
1001
ACAD
1000
AcDbSavedByObjectVersion
1070
     0
  0
VISUALSTYLE
  5
32
102
{ACAD_REACTORS
330
2A
102
}
102
{ACAD_XDICTIONARY
360
186
102
}
330
2A
100
AcDbVisualStyle
  2
Basic
 70
     7
 71
     1
 72
     0
 73
     1
 90
        0
 40
0.6
 41
30.0
 62
     5
 63
     7
421
 16777215
 74
     0
 91
        4
 64
     7
 65
   257
 75
     1
175
     1
 42
1.0
 92
        8
 66
     7
 43
1.0
 76
     1
 77
     6
 78
     2
 67
     7
 79
     5
170
     0
171
     0
290
     0
174
     0
 93
        1
 44
0.0
173
     0
291
     1
 45
0.0
1001
ACAD
1000
AcDbSavedByObjectVersion
1070
     0
  0
VISUALSTYLE
  5
36
102
{ACAD_REACTORS
330
2A
102
}
102
{ACAD_XDICTIONARY
360
18E
102
}
330
2A
100
AcDbVisualStyle
  2
Brighten
 70
    12
 71
     2
 72
     2
 73
     0
 90
        0
 40
0.6
 41
30.0
 62
     5
 63
     7
421
 16777215
 74
     1
 91
        4
 64
     7
 65
   257
 75
     1
175
     1
 42
1.0
 92
        8
 66
     7
 43
1.0
 76
     1
 77
     6
 78
     2
 67
     7
 79
     5
170
     0
171
     0
290
     0
174
     0
 93
        1
 44
50.0
173
     0
291
     1
 45
0.0
1001
ACAD
1000
AcDbSavedByObjectVersion
1070
     0
  0
VISUALSTYLE
  5
3A
102
{ACAD_REACTORS
330
2A
102
}
102
{ACAD_XDICTIONARY
360
196
102
}
330
2A
100
AcDbVisualStyle
  2
ColorChange
 70
    16
 71
     2
 72
     2
 73
     3
 90
        0
 40
0.6
 41
30.0
 62
     5
 63
     8
421
  8421504
 74
     1
 91
        4
 64
     7
 65
   257
 75
     1
175
     1
 42
1.0
 92
        8
 66
     8
424
  8421504
 43
1.0
 76
     1
 77
     6
 78
     2
 67
     7
 79
     5
170
     0
171
     0
290
     0
174
     0
 93
        1
 44
0.0
173
     0
291
     1
 45
0.0
1001
ACAD
1000
AcDbSavedByObjectVersion
1070
     0
  0
VISUALSTYLE
  5
34
102
{ACAD_REACTORS
330
2A
102
}
102
{ACAD_XDICTIONARY
360
18A
102
}
330
2A
100
AcDbVisualStyle
  2
Conceptual
 70
     9
 71
     3
 72
     2
 73
     0
 90
        0
 40
0.6
 41
30.0
 62
     5
 63
     7
421
 16777215
 74
     2
 91
        2
 64
     7
 65
   257
 75
     1
175
     1
 42
179.0
 92
        8
 66
     7
 43
1.0
 76
     1
 77
     6
 78
     2
 67
     7
 79
     3
170
     0
171
     0
290
     0
174
     0
 93
        1
 44
0.0
173
     0
291
     0
 45
0.0
1001
ACAD
1000
AcDbSavedByObjectVersion
1070
     0
  0
VISUALSTYLE
  5
35
102
{ACAD_REACTORS
330
2A
102
}
102
{ACAD_XDICTIONARY
360
18C
102
}
330
2A
100
AcDbVisualStyle
  2
Dim
 70
    11
 71
     2
 72
     2
 73
     0
 90
        0
 40
0.6
 41
30.0
 62
     5
 63
     7
421
 16777215
 74
     1
 91
        4
 64
     7
 65
   257
 75
     1
175
     1
 42
1.0
 92
        8
 66
     7
 43
1.0
 76
     1
 77
     6
 78
     2
 67
     7
 79
     5
170
     0
171
     0
290
     0
174
     0
 93
        1
 44
-50.0
173
     0
291
     1
 45
0.0
1001
ACAD
1000
AcDbSavedByObjectVersion
1070
     0
  0
VISUALSTYLE
  5
3D
102
{ACAD_REACTORS
330
2A
102
}
102
{ACAD_XDICTIONARY
360
19C
102
}
330
2A
100
AcDbVisualStyle
  2
EdgeColorOff
 70
    22
 71
     2
 72
     2
 73
     0
 90
        0
 40
0.6
 41
30.0
 62
     5
 63
     7
421
 16777215
 74
     1
 91
        4
 64
     7
 65
   257
 75
     1
175
     1
 42
1.0
 92
        8
 66
     7
 43
1.0
 76
     1
 77
     6
 78
     2
 67
     7
 79
     5
170
     0
171
     0
290
     0
174
     0
 93
        1
 44
0.0
173
     0
291
     1
 45
0.0
1001
ACAD
1000
AcDbSavedByObjectVersion
1070
     0
  0
VISUALSTYLE
  5
39
102
{ACAD_REACTORS
330
2A
102
}
102
{ACAD_XDICTIONARY
360
194
102
}
330
2A
100
AcDbVisualStyle
  2
Facepattern
 70
    15
 71
     2
 72
     2
 73
     0
 90
        0
 40
0.6
 41
30.0
 62
     5
 63
     7
421
 16777215
 74
     1
 91
        4
 64
     7
 65
   257
 75
     1
175
     1
 42
1.0
 92
        8
 66
     7
 43
1.0
 76
     1
 77
     6
 78
     2
 67
     7
 79
     5
170
     0
171
     0
290
     0
174
     0
 93
        1
 44
0.0
173
     0
291
     1
 45
0.0
1001
ACAD
1000
AcDbSavedByObjectVersion
1070
     0
  0
VISUALSTYLE
  5
2B
102
{ACAD_REACTORS
330
2A
102
}
102
{ACAD_XDICTIONARY
360
178
102
}
330
2A
100
AcDbVisualStyle
  2
Flat
 70
     0
 71
     2
 72
     1
 73
     1
 90
        2
 40
0.6
 41
30.0
 62
     5
 63
     7
421
 16777215
 74
     0
 91
        0
 64
     7
 65
   257
 75
     1
175
     1
 42
1.0
 92
        8
 66
     7
 43
1.0
 76
     1
 77
     6
 78
     2
 67
     7
 79
     5
170
     0
171
     0
290
     0
174
     0
 93
       13
 44
0.0
173
     0
291
     1
 45
0.0
1001
ACAD
1000
AcDbSavedByObjectVersion
1070
     0
  0
VISUALSTYLE
  5
2C
102
{ACAD_REACTORS
330
2A
102
}
102
{ACAD_XDICTIONARY
360
17A
102
}
330
2A
100
AcDbVisualStyle
  2
FlatWithEdges
 70
     1
 71
     2
 72
     1
 73
     1
 90
        2
 40
0.6
 41
30.0
 62
     5
 63
     7
421
 16777215
 74
     1
 91
        0
 64
     7
 65
   257
 75
     1
175
     1
 42
1.0
 92
        0
 66
   257
 43
1.0
 76
     1
 77
     6
 78
     2
 67
     7
 79
     5
170
     0
171
     0
290
     0
174
     0
 93
       13
 44
0.0
173
     0
291
     1
 45
0.0
1001
ACAD
1000
AcDbSavedByObjectVersion
1070
     0
  0
VISUALSTYLE
  5
2D
102
{ACAD_REACTORS
330
2A
102
}
102
{ACAD_XDICTIONARY
360
17C
102
}
330
2A
100
AcDbVisualStyle
  2
Gouraud
 70
     2
 71
     2
 72
     2
 73
     1
 90
        2
 40
0.6
 41
30.0
 62
     5
 63
     7
421
 16777215
 74
     0
 91
        0
 64
     7
 65
   257
 75
     1
175
     1
 42
1.0
 92
        0
 66
     7
 43
1.0
 76
     1
 77
     6
 78
     2
 67
     7
 79
     5
170
     0
171
     0
290
     0
174
     0
 93
       13
 44
0.0
173
     0
291
     1
 45
0.0
1001
ACAD
1000
AcDbSavedByObjectVersion
1070
     0
  0
VISUALSTYLE
  5
2E
102
{ACAD_REACTORS
330
2A
102
}
102
{ACAD_XDICTIONARY
360
17E
102
}
330
2A
100
AcDbVisualStyle
  2
GouraudWithEdges
 70
     3
 71
     2
 72
     2
 73
     1
 90
        2
 40
0.6
 41
30.0
 62
     5
 63
     7
421
 16777215
 74
     1
 91
        0
 64
     7
 65
   257
 75
     1
175
     1
 42
1.0
 92
        0
 66
   257
 43
1.0
 76
     1
 77
     6
 78
     2
 67
     7
 79
     5
170
     0
171
     0
290
     0
174
     0
 93
       13
 44
0.0
173
     0
291
     1
 45
0.0
1001
ACAD
1000
AcDbSavedByObjectVersion
1070
     0
  0
VISUALSTYLE
  5
31
102
{ACAD_REACTORS
330
2A
102
}
102
{ACAD_XDICTIONARY
360
184
102
}
330
2A
100
AcDbVisualStyle
  2
Hidden
 70
     6
 71
     1
 72
     2
 73
     2
 90
        0
 40
0.6
 41
30.0
 62
     5
 63
     7
421
 16777215
 74
     2
 91
        2
 64
     7
 65
   257
 75
     2
175
     1
 42
40.0
 92
        0
 66
   257
 43
1.0
 76
     1
 77
     6
 78
     2
 67
     7
 79
     3
170
     0
171
     0
290
     0
174
     0
 93
        1
 44
0.0
173
     0
291
     0
 45
0.0
1001
ACAD
1000
AcDbSavedByObjectVersion
1070
     0
  0
VISUALSTYLE
  5
3B
102
{ACAD_REACTORS
330
2A
102
}
102
{ACAD_XDICTIONARY
360
198
102
}
330
2A
100
AcDbVisualStyle
  2
JitterOff
 70
    20
 71
     2
 72
     2
 73
     0
 90
        0
 40
0.6
 41
30.0
 62
     5
 63
     7
421
 16777215
 74
     1
 91
        4
 64
     7
 65
   257
 75
     1
175
     1
 42
1.0
 92
       10
 66
     7
 43
1.0
 76
     1
 77
     6
 78
     2
 67
     7
 79
     5
170
     0
171
     0
290
     0
174
     0
 93
        1
 44
0.0
173
     0
291
     1
 45
0.0
1001
ACAD
1000
AcDbSavedByObjectVersion
1070
     0
  0
VISUALSTYLE
  5
38
102
{ACAD_REACTORS
330
2A
102
}
102
{ACAD_XDICTIONARY
360
192
102
}
330
2A
100
AcDbVisualStyle
  2
Linepattern
 70
    14
 71
     2
 72
     2
 73
     0
 90
        0
 40
0.6
 41
30.0
 62
     5
 63
     7
421
 16777215
 74
     1
 91
        4
 64
     7
 65
   257
 75
     7
175
     7
 42
1.0
 92
        8
 66
     7
 43
1.0
 76
     1
 77
     6
 78
     2
 67
     7
 79
     5
170
     0
171
     0
290
     0
174
     0
 93
        1
 44
0.0
173
     0
291
     1
 45
0.0
1001
ACAD
1000
AcDbSavedByObjectVersion
1070
     0
  0
VISUALSTYLE
  5
3C
102
{ACAD_REACTORS
330
2A
102
}
102
{ACAD_XDICTIONARY
360
19A
102
}
330
2A
100
AcDbVisualStyle
  2
OverhangOff
 70
    21
 71
     2
 72
     2
 73
     0
 90
        0
 40
0.6
 41
30.0
 62
     5
 63
     7
421
 16777215
 74
     1
 91
        4
 64
     7
 65
   257
 75
     1
175
     1
 42
1.0
 92
        9
 66
     7
 43
1.0
 76
     1
 77
     6
 78
     2
 67
     7
 79
     5
170
     0
171
     0
290
     0
174
     0
 93
        1
 44
0.0
173
     0
291
     1
 45
0.0
1001
ACAD
1000
AcDbSavedByObjectVersion
1070
     0
  0
VISUALSTYLE
  5
33
102
{ACAD_REACTORS
330
2A
102
}
102
{ACAD_XDICTIONARY
360
188
102
}
330
2A
100
AcDbVisualStyle
  2
Realistic
 70
     8
 71
     2
 72
     3
 73
     0
 90
        2
 40
0.6
 41
30.0
 62
     5
 63
     7
421
 16777215
 74
     0
 91
        0
 64
     7
 65
   257
 75
     1
175
     1
 42
1.0
 92
        8
 66
   257
 43
1.0
 76
     1
 77
     6
 78
     2
 67
     7
 79
     3
170
     0
171
     0
290
     0
174
     0
 93
       13
 44
0.0
173
     0
291
     0
 45
0.0
1001
ACAD
1000
AcDbSavedByObjectVersion
1070
     0
  0
VISUALSTYLE
  5
42
102
{ACAD_REACTORS
330
2A
102
}
102
{ACAD_XDICTIONARY
360
1A6
102
}
330
2A
100
AcDbVisualStyle
  2
Shaded
 70
    27
 71
     2
 72
     2
 73
     1
 90
        2
 40
0.6
 41
30.0
 62
     5
 63
     7
421
 16777215
 74
     0
 91
        4
 64
     7
 65
   257
 75
     1
175
     1
 42
1.0
 92
        8
 66
   257
 43
1.0
 76
     1
 77
     6
 78
     2
 67
     8
425
  7895160
 79
     3
170
     0
171
     0
290
     0
174
     0
 93
        5
 44
0.0
173
     0
291
     0
 45
0.0
1001
ACAD
1000
AcDbSavedByObjectVersion
1070
     0
  0
VISUALSTYLE
  5
41
102
{ACAD_REACTORS
330
2A
102
}
102
{ACAD_XDICTIONARY
360
1A4
102
}
330
2A
100
AcDbVisualStyle
  2
Shaded with edges
 70
    26
 71
     2
 72
     2
 73
     1
 90
        2
 40
0.6
 41
30.0
 62
     5
 63
     7
421
 16777215
 74
     1
 91
       10
 64
     7
 65
   257
 75
     2
175
     1
 42
1.0
 92
        8
 66
   257
 43
1.0
 76
     1
 77
     6
 78
     2
 67
     7
 79
     3
170
     0
171
     0
290
     0
174
     0
 93
        5
 44
0.0
173
     0
291
     0
 45
0.0
1001
ACAD
1000
AcDbSavedByObjectVersion
1070
     0
  0
VISUALSTYLE
  5
3E
102
{ACAD_REACTORS
330
2A
102
}
102
{ACAD_XDICTIONARY
360
19E
102
}
330
2A
100
AcDbVisualStyle
  2
Shades of Gray
 70
    23
 71
     2
 72
     2
 73
     3
 90
        0
 40
0.6
 41
30.0
 62
     5
 63
     7
421
 16777215
 74
     2
 91
        2
 64
     7
 65
     7
 75
     1
175
     1
 42
40.0
 92
        8
 66
     7
 43
1.0
 76
     1
 77
     6
 78
     2
 67
     7
 79
     3
170
     0
171
     0
290
     0
174
     0
 93
        1
 44
0.0
173
     0
291
     0
 45
0.0
1001
ACAD
1000
AcDbSavedByObjectVersion
1070
     0
  0
VISUALSTYLE
  5
3F
102
{ACAD_REACTORS
330
2A
102
}
102
{ACAD_XDICTIONARY
360
1A0
102
}
330
2A
100
AcDbVisualStyle
  2
Sketchy
 70
    24
 71
     1
 72
     2
 73
     2
 90
        0
 40
0.6
 41
30.0
 62
     5
 63
     7
421
 16777215
 74
     2
 91
        2
 64
     7
 65
     7
 75
     1
175
     1
 42
40.0
 92
       11
 66
     7
 43
1.0
 76
     1
 77
     6
 78
     2
 67
     7
 79
     6
170
     0
171
     0
290
     0
174
     0
 93
        1
 44
0.0
173
     0
291
     0
 45
0.0
1001
ACAD
1000
AcDbSavedByObjectVersion
1070
     0
  0
VISUALSTYLE
  5
37
102
{ACAD_REACTORS
330
2A
102
}
102
{ACAD_XDICTIONARY
360
190
102
}
330
2A
100
AcDbVisualStyle
  2
Thicken
 70
    13
 71
     2
 72
     2
 73
     0
 90
        0
 40
0.6
 41
30.0
 62
     5
 63
     7
421
 16777215
 74
     1
 91
        4
 64
     7
 65
   257
 75
     1
175
     1
 42
1.0
 92
       12
 66
     7
 43
1.0
 76
     1
 77
     6
 78
     2
 67
     7
 79
     5
170
     0
171
     0
290
     0
174
     0
 93
        1
 44
0.0
173
     0
291
     1
 45
0.0
1001
ACAD
1000
AcDbSavedByObjectVersion
1070
     0
  0
VISUALSTYLE
  5
30
102
{ACAD_REACTORS
330
2A
102
}
102
{ACAD_XDICTIONARY
360
182
102
}
330
2A
100
AcDbVisualStyle
  2
Wireframe
 70
     5
 71
     0
 72
     2
 73
     0
 90
        0
 40
0.6
 41
30.0
 62
     5
 63
     7
421
 16777215
 74
     1
 91
        4
 64
     7
 65
   257
 75
     1
175
     1
 42
1.0
 92
        0
 66
   257
 43
1.0
 76
     1
 77
     6
 78
     2
 67
     7
 79
     3
170
     0
171
     0
290
     0
174
     0
 93
        1
 44
0.0
173
     0
291
     0
 45
0.0
1001
ACAD
1000
AcDbSavedByObjectVersion
1070
     0
  0
VISUALSTYLE
  5
40
102
{ACAD_REACTORS
330
2A
102
}
102
{ACAD_XDICTIONARY
360
1A2
102
}
330
2A
100
AcDbVisualStyle
  2
X-Ray
 70
    25
 71
     2
 72
     2
 73
     1
 90
        1
 40
0.5
 41
30.0
 62
     5
 63
     7
421
 16777215
 74
     1
 91
        0
 64
     7
 65
   257
 75
     1
175
     1
 42
1.0
 92
        8
 66
     7
 43
1.0
 76
     1
 77
     6
 78
     2
 67
     7
 79
     3
170
     0
171
     0
290
     0
174
     0
 93
       13
 44
0.0
173
     0
291
     0
 45
0.0
1001
ACAD
1000
AcDbSavedByObjectVersion
1070
     0
  0
DICTIONARYVAR
  5
176
102
{ACAD_REACTORS
330
175
102
}
330
175
100
DictionaryVariables
280
     0
  1
1:1
  0
DICTIONARYVAR
  5
177
102
{ACAD_REACTORS
330
175
102
}
330
175
100
DictionaryVariables
280
     0
  1
1
  0
DICTIONARY
  5
1AA
330
45
100
AcDbDictionary
280
     1
281
     1
  3
ACAD_XREC_ROUNDTRIP
360
1AB
  0
DICTIONARY
  5
1A8
330
44
100
AcDbDictionary
280
     1
281
     1
  3
ACAD_XREC_ROUNDTRIP
360
1A9
  0
DICTIONARY
  5
1AC
330
46
100
AcDbDictionary
280
     1
281
     1
  3
ACAD_XREC_ROUNDTRIP
360
1AD
  0
DICTIONARY
  5
180
330
2F
100
AcDbDictionary
280
     1
281
     1
  3
ACAD_XREC_ROUNDTRIP
360
181
  0
DICTIONARY
  5
186
330
32
100
AcDbDictionary
280
     1
281
     1
  3
ACAD_XREC_ROUNDTRIP
360
187
  0
DICTIONARY
  5
18E
330
36
100
AcDbDictionary
280
     1
281
     1
  3
ACAD_XREC_ROUNDTRIP
360
18F
  0
DICTIONARY
  5
196
330
3A
100
AcDbDictionary
280
     1
281
     1
  3
ACAD_XREC_ROUNDTRIP
360
197
  0
DICTIONARY
  5
18A
330
34
100
AcDbDictionary
280
     1
281
     1
  3
ACAD_XREC_ROUNDTRIP
360
18B
  0
DICTIONARY
  5
18C
330
35
100
AcDbDictionary
280
     1
281
     1
  3
ACAD_XREC_ROUNDTRIP
360
18D
  0
DICTIONARY
  5
19C
330
3D
100
AcDbDictionary
280
     1
281
     1
  3
ACAD_XREC_ROUNDTRIP
360
19D
  0
DICTIONARY
  5
194
330
39
100
AcDbDictionary
280
     1
281
     1
  3
ACAD_XREC_ROUNDTRIP
360
195
  0
DICTIONARY
  5
178
330
2B
100
AcDbDictionary
280
     1
281
     1
  3
ACAD_XREC_ROUNDTRIP
360
179
  0
DICTIONARY
  5
17A
330
2C
100
AcDbDictionary
280
     1
281
     1
  3
ACAD_XREC_ROUNDTRIP
360
17B
  0
DICTIONARY
  5
17C
330
2D
100
AcDbDictionary
280
     1
281
     1
  3
ACAD_XREC_ROUNDTRIP
360
17D
  0
DICTIONARY
  5
17E
330
2E
100
AcDbDictionary
280
     1
281
     1
  3
ACAD_XREC_ROUNDTRIP
360
17F
  0
DICTIONARY
  5
184
330
31
100
AcDbDictionary
280
     1
281
     1
  3
ACAD_XREC_ROUNDTRIP
360
185
  0
DICTIONARY
  5
198
330
3B
100
AcDbDictionary
280
     1
281
     1
  3
ACAD_XREC_ROUNDTRIP
360
199
  0
DICTIONARY
  5
192
330
38
100
AcDbDictionary
280
     1
281
     1
  3
ACAD_XREC_ROUNDTRIP
360
193
  0
DICTIONARY
  5
19A
330
3C
100
AcDbDictionary
280
     1
281
     1
  3
ACAD_XREC_ROUNDTRIP
360
19B
  0
DICTIONARY
  5
188
330
33
100
AcDbDictionary
280
     1
281
     1
  3
ACAD_XREC_ROUNDTRIP
360
189
  0
DICTIONARY
  5
1A6
330
42
100
AcDbDictionary
280
     1
281
     1
  3
ACAD_XREC_ROUNDTRIP
360
1A7
  0
DICTIONARY
  5
1A4
330
41
100
AcDbDictionary
280
     1
281
     1
  3
ACAD_XREC_ROUNDTRIP
360
1A5
  0
DICTIONARY
  5
19E
330
3E
100
AcDbDictionary
280
     1
281
     1
  3
ACAD_XREC_ROUNDTRIP
360
19F
  0
DICTIONARY
  5
1A0
330
3F
100
AcDbDictionary
280
     1
281
     1
  3
ACAD_XREC_ROUNDTRIP
360
1A1
  0
DICTIONARY
  5
190
330
37
100
AcDbDictionary
280
     1
281
     1
  3
ACAD_XREC_ROUNDTRIP
360
191
  0
DICTIONARY
  5
182
330
30
100
AcDbDictionary
280
     1
281
     1
  3
ACAD_XREC_ROUNDTRIP
360
183
  0
DICTIONARY
  5
1A2
330
40
100
AcDbDictionary
280
     1
281
     1
  3
ACAD_XREC_ROUNDTRIP
360
1A3
  0
XRECORD
  5
1AB
102
{ACAD_REACTORS
330
1AA
102
}
330
1AA
100
AcDbXrecord
280
     1
102
MATERIAL
148
0.0
149
0.0
149
0.0
 93
        0
 94
      127
282
     0
 72
     1
 77
     1
171
     1
175
     1
179
     1
273
     0
  0
XRECORD
  5
1A9
102
{ACAD_REACTORS
330
1A8
102
}
330
1A8
100
AcDbXrecord
280
     1
102
MATERIAL
148
0.0
149
0.0
149
0.0
 93
        0
 94
      127
282
     0
 72
     1
 77
     1
171
     1
175
     1
179
     1
273
     0
  0
XRECORD
  5
1AD
102
{ACAD_REACTORS
330
1AC
102
}
330
1AC
100
AcDbXrecord
280
     1
102
MATERIAL
148
0.0
149
0.0
149
0.0
 93
        0
 94
      127
282
     0
 72
     1
 77
     1
171
     1
175
     1
179
     1
273
     0
  0
XRECORD
  5
181
102
{ACAD_REACTORS
330
180
102
}
330
180
100
AcDbXrecord
280
     1
102
RTVSPropertyOp0
 70
     1
102
RTVSPropertyOp1
 70
     1
102
RTVSPropertyOp2
 70
     1
102
RTVSPropertyOp3
 70
     1
102
RTVSPropertyOp4
 70
     1
102
RTVSPropertyOp5
 70
     1
102
RTVSPropertyOp6
 70
     1
102
RTVSPropertyOp7
 70
     1
102
RTVSPropertyOp8
 70
     1
102
RTVSPropertyOp9
 70
     1
102
RTVSPropertyOp10
 70
     1
102
RTVSPropertyOp11
 70
     1
102
RTVSPropertyOp12
 70
     1
102
RTVSPropertyOp13
 70
     1
102
RTVSPropertyOp14
 70
     1
102
RTVSPropertyOp15
 70
     1
102
RTVSPropertyOp16
 70
     1
102
RTVSPropertyOp17
 70
     1
102
RTVSPropertyOp18
 70
     1
102
RTVSPropertyOp19
 70
     1
102
RTVSPropertyOp20
 70
     1
102
RTVSPropertyOp21
 70
     1
102
RTVSPropertyOp22
 70
     1
102
RTVSPropertyOp23
 70
     1
102
RTVSPropertyOp24
 70
     1
102
RTVSPropertyOp25
 70
     1
102
RTVSPropertyOp26
 70
     1
102
RTVSPropertyOp27
 70
     1
102
RTVSPropertyOp28
 70
     1
102
RTVSPropertyOp29
 70
     1
102
RTVSPropertyOp30
 70
     1
102
RTVSPropertyOp31
 70
     1
102
RTVSPropertyOp32
 70
     1
102
RTVSPropertyOp33
 70
     1
102
RTVSPropertyOp34
 70
     1
102
RTVSPropertyOp35
 70
     1
102
RTVSPropertyOp36
 70
     1
102
RTVSPropertyOp37
 70
     1
102
RTVSPropertyOp38
 70
     1
102
RTVSPropertyOp39
 70
     1
102
RTVSPropertyOp40
 70
     1
102
RTVSPropertyOp41
 70
     1
102
RTVSPropertyOp42
 70
     1
102
RTVSPropertyOp43
 70
     1
102
RTVSPropertyOp44
 70
     1
102
RTVSPropertyOp45
 70
     1
102
RTVSPropertyOp46
 70
     1
102
RTVSPropertyOp47
 70
     1
102
RTVSPropertyOp48
 70
     1
102
RTVSPropertyOp49
 70
     1
102
RTVSPropertyOp50
 70
     1
102
RTVSPropertyOp51
 70
     0
102
RTVSPropertyOp52
 70
     0
102
RTVSPropertyOp53
 70
     1
102
RTVSPropertyOp54
 70
     1
102
RTVSPropertyOp55
 70
     1
102
RTVSPropertyOp56
 70
     1
102
RTVSPropertyOp57
 70
     1
102
RTVSPost2010Prop28
280
     1
102
RTVSPost2010PropOp28
 70
     1
102
RTVSPost2010Prop29
280
     1
102
RTVSPost2010PropOp29
 70
     1
102
RTVSPost2010Prop30
280
     0
102
RTVSPost2010PropOp30
 70
     1
102
RTVSPost2010Prop31
280
     0
102
RTVSPost2010PropOp31
 70
     1
102
RTVSPost2010Prop32
280
     0
102
RTVSPost2010PropOp32
 70
     1
102
RTVSPost2010Prop33
280
     0
102
RTVSPost2010PropOp33
 70
     1
102
RTVSPost2010Prop34
280
     0
102
RTVSPost2010PropOp34
 70
     1
102
RTVSPost2010Prop35
280
     0
102
RTVSPost2010PropOp35
 70
     1
102
RTVSPost2010Prop36
280
     0
102
RTVSPost2010PropOp36
 70
     1
102
RTVSPost2010Prop37
 90
       50
102
RTVSPost2010PropOp37
 70
     1
102
RTVSPost2010Prop38
140
0.0
102
RTVSPost2010PropOp38
 70
     1
102
RTVSPost2010Prop39
140
1.0
102
RTVSPost2010PropOp39
 70
     1
102
RTVSPost2010Prop40
 90
        0
102
RTVSPost2010PropOp40
 70
     1
102
RTVSPost2010Prop41ColorIndex
 90
       18
102
RTVSPost2010Prop41ColorRGB
 90
        0
102
RTVSPost2010PropOp41
 70
     1
102
RTVSPost2010Prop42
 90
       50
102
RTVSPost2010PropOp42
 70
     1
102
RTVSPost2010Prop43
 90
        3
102
RTVSPost2010PropOp43
 70
     1
102
RTVSPost2010Prop44ColorIndex
 90
        5
102
RTVSPost2010Prop44ColorRGB
 90
      255
102
RTVSPost2010PropOp44
 70
     1
102
RTVSPost2010Prop45
280
     0
102
RTVSPost2010PropOp45
 70
     1
102
RTVSPost2010Prop46
 90
       50
102
RTVSPost2010PropOp46
 70
     1
102
RTVSPost2010Prop47
 90
       50
102
RTVSPost2010PropOp47
 70
     1
102
RTVSPost2010Prop48
 90
       50
102
RTVSPost2010PropOp48
 70
     1
102
RTVSPost2010Prop49
280
     0
102
RTVSPost2010PropOp49
 70
     1
102
RTVSPost2010Prop50
 90
       50
102
RTVSPost2010PropOp50
 70
     1
102
RTVSPost2010Prop51ColorIndex
 90
      256
102
RTVSPost2010Prop51ColorRGB
 90
-16777216
102
RTVSPost2010PropOp51
 70
     0
102
RTVSPost2010Prop52
140
1.0
102
RTVSPost2010PropOp52
 70
     0
102
RTVSPost2010Prop53
 90
        2
102
RTVSPost2010PropOp53
 70
     1
102
RTVSPost2010Prop54
  1
strokes_ogs.tif
102
RTVSPost2010PropOp54
 70
     1
102
RTVSPost2010Prop55
280
     0
102
RTVSPost2010PropOp55
 70
     1
102
RTVSPost2010Prop56
140
1.0
102
RTVSPost2010PropOp56
 70
     1
102
RTVSPost2010Prop57
140
1.0
102
RTVSPost2010PropOp57
 70
     1
  0
XRECORD
  5
187
102
{ACAD_REACTORS
330
186
102
}
330
186
100
AcDbXrecord
280
     1
102
RTVSPropertyOp0
 70
     1
102
RTVSPropertyOp1
 70
     1
102
RTVSPropertyOp2
 70
     1
102
RTVSPropertyOp3
 70
     1
102
RTVSPropertyOp4
 70
     1
102
RTVSPropertyOp5
 70
     1
102
RTVSPropertyOp6
 70
     1
102
RTVSPropertyOp7
 70
     1
102
RTVSPropertyOp8
 70
     1
102
RTVSPropertyOp9
 70
     1
102
RTVSPropertyOp10
 70
     1
102
RTVSPropertyOp11
 70
     1
102
RTVSPropertyOp12
 70
     1
102
RTVSPropertyOp13
 70
     1
102
RTVSPropertyOp14
 70
     1
102
RTVSPropertyOp15
 70
     1
102
RTVSPropertyOp16
 70
     1
102
RTVSPropertyOp17
 70
     1
102
RTVSPropertyOp18
 70
     1
102
RTVSPropertyOp19
 70
     1
102
RTVSPropertyOp20
 70
     1
102
RTVSPropertyOp21
 70
     1
102
RTVSPropertyOp22
 70
     1
102
RTVSPropertyOp23
 70
     1
102
RTVSPropertyOp24
 70
     1
102
RTVSPropertyOp25
 70
     1
102
RTVSPropertyOp26
 70
     1
102
RTVSPropertyOp27
 70
     1
102
RTVSPropertyOp28
 70
     1
102
RTVSPropertyOp29
 70
     1
102
RTVSPropertyOp30
 70
     1
102
RTVSPropertyOp31
 70
     1
102
RTVSPropertyOp32
 70
     1
102
RTVSPropertyOp33
 70
     1
102
RTVSPropertyOp34
 70
     1
102
RTVSPropertyOp35
 70
     1
102
RTVSPropertyOp36
 70
     1
102
RTVSPropertyOp37
 70
     1
102
RTVSPropertyOp38
 70
     1
102
RTVSPropertyOp39
 70
     1
102
RTVSPropertyOp40
 70
     1
102
RTVSPropertyOp41
 70
     1
102
RTVSPropertyOp42
 70
     1
102
RTVSPropertyOp43
 70
     1
102
RTVSPropertyOp44
 70
     1
102
RTVSPropertyOp45
 70
     1
102
RTVSPropertyOp46
 70
     1
102
RTVSPropertyOp47
 70
     1
102
RTVSPropertyOp48
 70
     1
102
RTVSPropertyOp49
 70
     1
102
RTVSPropertyOp50
 70
     1
102
RTVSPropertyOp51
 70
     0
102
RTVSPropertyOp52
 70
     0
102
RTVSPropertyOp53
 70
     1
102
RTVSPropertyOp54
 70
     1
102
RTVSPropertyOp55
 70
     1
102
RTVSPropertyOp56
 70
     1
102
RTVSPropertyOp57
 70
     1
102
RTVSPost2010Prop28
280
     0
102
RTVSPost2010PropOp28
 70
     1
102
RTVSPost2010Prop29
280
     1
102
RTVSPost2010PropOp29
 70
     1
102
RTVSPost2010Prop30
280
     1
102
RTVSPost2010PropOp30
 70
     1
102
RTVSPost2010Prop31
280
     0
102
RTVSPost2010PropOp31
 70
     1
102
RTVSPost2010Prop32
280
     0
102
RTVSPost2010PropOp32
 70
     1
102
RTVSPost2010Prop33
280
     0
102
RTVSPost2010PropOp33
 70
     1
102
RTVSPost2010Prop34
280
     0
102
RTVSPost2010PropOp34
 70
     1
102
RTVSPost2010Prop35
280
     0
102
RTVSPost2010PropOp35
 70
     1
102
RTVSPost2010Prop36
280
     0
102
RTVSPost2010PropOp36
 70
     1
102
RTVSPost2010Prop37
 90
       50
102
RTVSPost2010PropOp37
 70
     1
102
RTVSPost2010Prop38
140
0.0
102
RTVSPost2010PropOp38
 70
     1
102
RTVSPost2010Prop39
140
1.0
102
RTVSPost2010PropOp39
 70
     1
102
RTVSPost2010Prop40
 90
        0
102
RTVSPost2010PropOp40
 70
     1
102
RTVSPost2010Prop41ColorIndex
 90
       18
102
RTVSPost2010Prop41ColorRGB
 90
        0
102
RTVSPost2010PropOp41
 70
     1
102
RTVSPost2010Prop42
 90
       50
102
RTVSPost2010PropOp42
 70
     1
102
RTVSPost2010Prop43
 90
        3
102
RTVSPost2010PropOp43
 70
     1
102
RTVSPost2010Prop44ColorIndex
 90
        5
102
RTVSPost2010Prop44ColorRGB
 90
      255
102
RTVSPost2010PropOp44
 70
     1
102
RTVSPost2010Prop45
280
     0
102
RTVSPost2010PropOp45
 70
     1
102
RTVSPost2010Prop46
 90
       50
102
RTVSPost2010PropOp46
 70
     1
102
RTVSPost2010Prop47
 90
       50
102
RTVSPost2010PropOp47
 70
     1
102
RTVSPost2010Prop48
 90
       50
102
RTVSPost2010PropOp48
 70
     1
102
RTVSPost2010Prop49
280
     0
102
RTVSPost2010PropOp49
 70
     1
102
RTVSPost2010Prop50
 90
       50
102
RTVSPost2010PropOp50
 70
     1
102
RTVSPost2010Prop51ColorIndex
 90
      256
102
RTVSPost2010Prop51ColorRGB
 90
-16777216
102
RTVSPost2010PropOp51
 70
     0
102
RTVSPost2010Prop52
140
1.0
102
RTVSPost2010PropOp52
 70
     0
102
RTVSPost2010Prop53
 90
        2
102
RTVSPost2010PropOp53
 70
     1
102
RTVSPost2010Prop54
  1
strokes_ogs.tif
102
RTVSPost2010PropOp54
 70
     1
102
RTVSPost2010Prop55
280
     0
102
RTVSPost2010PropOp55
 70
     1
102
RTVSPost2010Prop56
140
1.0
102
RTVSPost2010PropOp56
 70
     1
102
RTVSPost2010Prop57
140
1.0
102
RTVSPost2010PropOp57
 70
     1
  0
XRECORD
  5
18F
102
{ACAD_REACTORS
330
18E
102
}
330
18E
100
AcDbXrecord
280
     1
102
RTVSPropertyOp0
 70
     1
102
RTVSPropertyOp1
 70
     1
102
RTVSPropertyOp2
 70
     1
102
RTVSPropertyOp3
 70
     1
102
RTVSPropertyOp4
 70
     1
102
RTVSPropertyOp5
 70
     1
102
RTVSPropertyOp6
 70
     1
102
RTVSPropertyOp7
 70
     1
102
RTVSPropertyOp8
 70
     1
102
RTVSPropertyOp9
 70
     1
102
RTVSPropertyOp10
 70
     1
102
RTVSPropertyOp11
 70
     1
102
RTVSPropertyOp12
 70
     1
102
RTVSPropertyOp13
 70
     1
102
RTVSPropertyOp14
 70
     1
102
RTVSPropertyOp15
 70
     1
102
RTVSPropertyOp16
 70
     1
102
RTVSPropertyOp17
 70
     1
102
RTVSPropertyOp18
 70
     1
102
RTVSPropertyOp19
 70
     1
102
RTVSPropertyOp20
 70
     1
102
RTVSPropertyOp21
 70
     1
102
RTVSPropertyOp22
 70
     1
102
RTVSPropertyOp23
 70
     1
102
RTVSPropertyOp24
 70
     1
102
RTVSPropertyOp25
 70
     1
102
RTVSPropertyOp26
 70
     1
102
RTVSPropertyOp27
 70
     1
102
RTVSPropertyOp28
 70
     1
102
RTVSPropertyOp29
 70
     1
102
RTVSPropertyOp30
 70
     1
102
RTVSPropertyOp31
 70
     1
102
RTVSPropertyOp32
 70
     1
102
RTVSPropertyOp33
 70
     1
102
RTVSPropertyOp34
 70
     1
102
RTVSPropertyOp35
 70
     1
102
RTVSPropertyOp36
 70
     1
102
RTVSPropertyOp37
 70
     1
102
RTVSPropertyOp38
 70
     1
102
RTVSPropertyOp39
 70
     1
102
RTVSPropertyOp40
 70
     1
102
RTVSPropertyOp41
 70
     1
102
RTVSPropertyOp42
 70
     1
102
RTVSPropertyOp43
 70
     1
102
RTVSPropertyOp44
 70
     1
102
RTVSPropertyOp45
 70
     1
102
RTVSPropertyOp46
 70
     1
102
RTVSPropertyOp47
 70
     1
102
RTVSPropertyOp48
 70
     1
102
RTVSPropertyOp49
 70
     1
102
RTVSPropertyOp50
 70
     1
102
RTVSPropertyOp51
 70
     0
102
RTVSPropertyOp52
 70
     0
102
RTVSPropertyOp53
 70
     1
102
RTVSPropertyOp54
 70
     1
102
RTVSPropertyOp55
 70
     1
102
RTVSPropertyOp56
 70
     1
102
RTVSPropertyOp57
 70
     1
102
RTVSPost2010Prop28
280
     0
102
RTVSPost2010PropOp28
 70
     1
102
RTVSPost2010Prop29
280
     1
102
RTVSPost2010PropOp29
 70
     1
102
RTVSPost2010Prop30
280
     1
102
RTVSPost2010PropOp30
 70
     1
102
RTVSPost2010Prop31
280
     0
102
RTVSPost2010PropOp31
 70
     1
102
RTVSPost2010Prop32
280
     0
102
RTVSPost2010PropOp32
 70
     1
102
RTVSPost2010Prop33
280
     0
102
RTVSPost2010PropOp33
 70
     1
102
RTVSPost2010Prop34
280
     0
102
RTVSPost2010PropOp34
 70
     1
102
RTVSPost2010Prop35
280
     0
102
RTVSPost2010PropOp35
 70
     1
102
RTVSPost2010Prop36
280
     0
102
RTVSPost2010PropOp36
 70
     1
102
RTVSPost2010Prop37
 90
       50
102
RTVSPost2010PropOp37
 70
     1
102
RTVSPost2010Prop38
140
0.0
102
RTVSPost2010PropOp38
 70
     1
102
RTVSPost2010Prop39
140
1.0
102
RTVSPost2010PropOp39
 70
     1
102
RTVSPost2010Prop40
 90
        0
102
RTVSPost2010PropOp40
 70
     1
102
RTVSPost2010Prop41ColorIndex
 90
       18
102
RTVSPost2010Prop41ColorRGB
 90
        0
102
RTVSPost2010PropOp41
 70
     1
102
RTVSPost2010Prop42
 90
       50
102
RTVSPost2010PropOp42
 70
     1
102
RTVSPost2010Prop43
 90
        3
102
RTVSPost2010PropOp43
 70
     1
102
RTVSPost2010Prop44ColorIndex
 90
        5
102
RTVSPost2010Prop44ColorRGB
 90
      255
102
RTVSPost2010PropOp44
 70
     1
102
RTVSPost2010Prop45
280
     0
102
RTVSPost2010PropOp45
 70
     1
102
RTVSPost2010Prop46
 90
       50
102
RTVSPost2010PropOp46
 70
     1
102
RTVSPost2010Prop47
 90
       50
102
RTVSPost2010PropOp47
 70
     1
102
RTVSPost2010Prop48
 90
       50
102
RTVSPost2010PropOp48
 70
     1
102
RTVSPost2010Prop49
280
     0
102
RTVSPost2010PropOp49
 70
     1
102
RTVSPost2010Prop50
 90
       50
102
RTVSPost2010PropOp50
 70
     1
102
RTVSPost2010Prop51ColorIndex
 90
      256
102
RTVSPost2010Prop51ColorRGB
 90
-16777216
102
RTVSPost2010PropOp51
 70
     0
102
RTVSPost2010Prop52
140
1.0
102
RTVSPost2010PropOp52
 70
     0
102
RTVSPost2010Prop53
 90
        2
102
RTVSPost2010PropOp53
 70
     1
102
RTVSPost2010Prop54
  1
strokes_ogs.tif
102
RTVSPost2010PropOp54
 70
     1
102
RTVSPost2010Prop55
280
     0
102
RTVSPost2010PropOp55
 70
     1
102
RTVSPost2010Prop56
140
1.0
102
RTVSPost2010PropOp56
 70
     1
102
RTVSPost2010Prop57
140
1.0
102
RTVSPost2010PropOp57
 70
     1
  0
XRECORD
  5
197
102
{ACAD_REACTORS
330
196
102
}
330
196
100
AcDbXrecord
280
     1
102
RTVSPropertyOp0
 70
     1
102
RTVSPropertyOp1
 70
     1
102
RTVSPropertyOp2
 70
     1
102
RTVSPropertyOp3
 70
     1
102
RTVSPropertyOp4
 70
     1
102
RTVSPropertyOp5
 70
     1
102
RTVSPropertyOp6
 70
     1
102
RTVSPropertyOp7
 70
     1
102
RTVSPropertyOp8
 70
     1
102
RTVSPropertyOp9
 70
     1
102
RTVSPropertyOp10
 70
     1
102
RTVSPropertyOp11
 70
     1
102
RTVSPropertyOp12
 70
     1
102
RTVSPropertyOp13
 70
     1
102
RTVSPropertyOp14
 70
     1
102
RTVSPropertyOp15
 70
     1
102
RTVSPropertyOp16
 70
     1
102
RTVSPropertyOp17
 70
     1
102
RTVSPropertyOp18
 70
     1
102
RTVSPropertyOp19
 70
     1
102
RTVSPropertyOp20
 70
     1
102
RTVSPropertyOp21
 70
     1
102
RTVSPropertyOp22
 70
     1
102
RTVSPropertyOp23
 70
     1
102
RTVSPropertyOp24
 70
     1
102
RTVSPropertyOp25
 70
     1
102
RTVSPropertyOp26
 70
     1
102
RTVSPropertyOp27
 70
     1
102
RTVSPropertyOp28
 70
     1
102
RTVSPropertyOp29
 70
     1
102
RTVSPropertyOp30
 70
     1
102
RTVSPropertyOp31
 70
     1
102
RTVSPropertyOp32
 70
     1
102
RTVSPropertyOp33
 70
     1
102
RTVSPropertyOp34
 70
     1
102
RTVSPropertyOp35
 70
     1
102
RTVSPropertyOp36
 70
     1
102
RTVSPropertyOp37
 70
     1
102
RTVSPropertyOp38
 70
     1
102
RTVSPropertyOp39
 70
     1
102
RTVSPropertyOp40
 70
     1
102
RTVSPropertyOp41
 70
     1
102
RTVSPropertyOp42
 70
     1
102
RTVSPropertyOp43
 70
     1
102
RTVSPropertyOp44
 70
     1
102
RTVSPropertyOp45
 70
     1
102
RTVSPropertyOp46
 70
     1
102
RTVSPropertyOp47
 70
     1
102
RTVSPropertyOp48
 70
     1
102
RTVSPropertyOp49
 70
     1
102
RTVSPropertyOp50
 70
     1
102
RTVSPropertyOp51
 70
     0
102
RTVSPropertyOp52
 70
     0
102
RTVSPropertyOp53
 70
     1
102
RTVSPropertyOp54
 70
     1
102
RTVSPropertyOp55
 70
     1
102
RTVSPropertyOp56
 70
     1
102
RTVSPropertyOp57
 70
     1
102
RTVSPost2010Prop28
280
     0
102
RTVSPost2010PropOp28
 70
     1
102
RTVSPost2010Prop29
280
     1
102
RTVSPost2010PropOp29
 70
     1
102
RTVSPost2010Prop30
280
     1
102
RTVSPost2010PropOp30
 70
     1
102
RTVSPost2010Prop31
280
     0
102
RTVSPost2010PropOp31
 70
     1
102
RTVSPost2010Prop32
280
     0
102
RTVSPost2010PropOp32
 70
     1
102
RTVSPost2010Prop33
280
     0
102
RTVSPost2010PropOp33
 70
     1
102
RTVSPost2010Prop34
280
     0
102
RTVSPost2010PropOp34
 70
     1
102
RTVSPost2010Prop35
280
     0
102
RTVSPost2010PropOp35
 70
     1
102
RTVSPost2010Prop36
280
     0
102
RTVSPost2010PropOp36
 70
     1
102
RTVSPost2010Prop37
 90
       50
102
RTVSPost2010PropOp37
 70
     1
102
RTVSPost2010Prop38
140
0.0
102
RTVSPost2010PropOp38
 70
     1
102
RTVSPost2010Prop39
140
1.0
102
RTVSPost2010PropOp39
 70
     1
102
RTVSPost2010Prop40
 90
        0
102
RTVSPost2010PropOp40
 70
     1
102
RTVSPost2010Prop41ColorIndex
 90
       18
102
RTVSPost2010Prop41ColorRGB
 90
        0
102
RTVSPost2010PropOp41
 70
     1
102
RTVSPost2010Prop42
 90
       50
102
RTVSPost2010PropOp42
 70
     1
102
RTVSPost2010Prop43
 90
        3
102
RTVSPost2010PropOp43
 70
     1
102
RTVSPost2010Prop44ColorIndex
 90
        5
102
RTVSPost2010Prop44ColorRGB
 90
      255
102
RTVSPost2010PropOp44
 70
     1
102
RTVSPost2010Prop45
280
     0
102
RTVSPost2010PropOp45
 70
     1
102
RTVSPost2010Prop46
 90
       50
102
RTVSPost2010PropOp46
 70
     1
102
RTVSPost2010Prop47
 90
       50
102
RTVSPost2010PropOp47
 70
     1
102
RTVSPost2010Prop48
 90
       50
102
RTVSPost2010PropOp48
 70
     1
102
RTVSPost2010Prop49
280
     0
102
RTVSPost2010PropOp49
 70
     1
102
RTVSPost2010Prop50
 90
       50
102
RTVSPost2010PropOp50
 70
     1
102
RTVSPost2010Prop51ColorIndex
 90
      256
102
RTVSPost2010Prop51ColorRGB
 90
-16777216
102
RTVSPost2010PropOp51
 70
     0
102
RTVSPost2010Prop52
140
1.0
102
RTVSPost2010PropOp52
 70
     0
102
RTVSPost2010Prop53
 90
        2
102
RTVSPost2010PropOp53
 70
     1
102
RTVSPost2010Prop54
  1
strokes_ogs.tif
102
RTVSPost2010PropOp54
 70
     1
102
RTVSPost2010Prop55
280
     0
102
RTVSPost2010PropOp55
 70
     1
102
RTVSPost2010Prop56
140
1.0
102
RTVSPost2010PropOp56
 70
     1
102
RTVSPost2010Prop57
140
1.0
102
RTVSPost2010PropOp57
 70
     1
  0
XRECORD
  5
18B
102
{ACAD_REACTORS
330
18A
102
}
330
18A
100
AcDbXrecord
280
     1
102
RTVSPropertyOp0
 70
     1
102
RTVSPropertyOp1
 70
     1
102
RTVSPropertyOp2
 70
     1
102
RTVSPropertyOp3
 70
     1
102
RTVSPropertyOp4
 70
     1
102
RTVSPropertyOp5
 70
     1
102
RTVSPropertyOp6
 70
     1
102
RTVSPropertyOp7
 70
     1
102
RTVSPropertyOp8
 70
     1
102
RTVSPropertyOp9
 70
     1
102
RTVSPropertyOp10
 70
     1
102
RTVSPropertyOp11
 70
     1
102
RTVSPropertyOp12
 70
     1
102
RTVSPropertyOp13
 70
     1
102
RTVSPropertyOp14
 70
     1
102
RTVSPropertyOp15
 70
     1
102
RTVSPropertyOp16
 70
     1
102
RTVSPropertyOp17
 70
     1
102
RTVSPropertyOp18
 70
     1
102
RTVSPropertyOp19
 70
     1
102
RTVSPropertyOp20
 70
     1
102
RTVSPropertyOp21
 70
     1
102
RTVSPropertyOp22
 70
     1
102
RTVSPropertyOp23
 70
     1
102
RTVSPropertyOp24
 70
     1
102
RTVSPropertyOp25
 70
     1
102
RTVSPropertyOp26
 70
     1
102
RTVSPropertyOp27
 70
     1
102
RTVSPropertyOp28
 70
     1
102
RTVSPropertyOp29
 70
     1
102
RTVSPropertyOp30
 70
     1
102
RTVSPropertyOp31
 70
     1
102
RTVSPropertyOp32
 70
     1
102
RTVSPropertyOp33
 70
     1
102
RTVSPropertyOp34
 70
     1
102
RTVSPropertyOp35
 70
     1
102
RTVSPropertyOp36
 70
     1
102
RTVSPropertyOp37
 70
     1
102
RTVSPropertyOp38
 70
     1
102
RTVSPropertyOp39
 70
     1
102
RTVSPropertyOp40
 70
     1
102
RTVSPropertyOp41
 70
     1
102
RTVSPropertyOp42
 70
     1
102
RTVSPropertyOp43
 70
     1
102
RTVSPropertyOp44
 70
     1
102
RTVSPropertyOp45
 70
     1
102
RTVSPropertyOp46
 70
     1
102
RTVSPropertyOp47
 70
     1
102
RTVSPropertyOp48
 70
     1
102
RTVSPropertyOp49
 70
     1
102
RTVSPropertyOp50
 70
     1
102
RTVSPropertyOp51
 70
     0
102
RTVSPropertyOp52
 70
     0
102
RTVSPropertyOp53
 70
     1
102
RTVSPropertyOp54
 70
     1
102
RTVSPropertyOp55
 70
     1
102
RTVSPropertyOp56
 70
     1
102
RTVSPropertyOp57
 70
     1
102
RTVSPost2010Prop28
280
     0
102
RTVSPost2010PropOp28
 70
     1
102
RTVSPost2010Prop29
280
     1
102
RTVSPost2010PropOp29
 70
     1
102
RTVSPost2010Prop30
280
     1
102
RTVSPost2010PropOp30
 70
     1
102
RTVSPost2010Prop31
280
     0
102
RTVSPost2010PropOp31
 70
     1
102
RTVSPost2010Prop32
280
     0
102
RTVSPost2010PropOp32
 70
     1
102
RTVSPost2010Prop33
280
     0
102
RTVSPost2010PropOp33
 70
     1
102
RTVSPost2010Prop34
280
     0
102
RTVSPost2010PropOp34
 70
     1
102
RTVSPost2010Prop35
280
     0
102
RTVSPost2010PropOp35
 70
     1
102
RTVSPost2010Prop36
280
     0
102
RTVSPost2010PropOp36
 70
     1
102
RTVSPost2010Prop37
 90
       50
102
RTVSPost2010PropOp37
 70
     1
102
RTVSPost2010Prop38
140
0.0
102
RTVSPost2010PropOp38
 70
     1
102
RTVSPost2010Prop39
140
1.0
102
RTVSPost2010PropOp39
 70
     1
102
RTVSPost2010Prop40
 90
        0
102
RTVSPost2010PropOp40
 70
     1
102
RTVSPost2010Prop41ColorIndex
 90
       18
102
RTVSPost2010Prop41ColorRGB
 90
        0
102
RTVSPost2010PropOp41
 70
     1
102
RTVSPost2010Prop42
 90
       50
102
RTVSPost2010PropOp42
 70
     1
102
RTVSPost2010Prop43
 90
        3
102
RTVSPost2010PropOp43
 70
     1
102
RTVSPost2010Prop44ColorIndex
 90
        5
102
RTVSPost2010Prop44ColorRGB
 90
      255
102
RTVSPost2010PropOp44
 70
     1
102
RTVSPost2010Prop45
280
     0
102
RTVSPost2010PropOp45
 70
     1
102
RTVSPost2010Prop46
 90
       50
102
RTVSPost2010PropOp46
 70
     1
102
RTVSPost2010Prop47
 90
       50
102
RTVSPost2010PropOp47
 70
     1
102
RTVSPost2010Prop48
 90
       50
102
RTVSPost2010PropOp48
 70
     1
102
RTVSPost2010Prop49
280
     0
102
RTVSPost2010PropOp49
 70
     1
102
RTVSPost2010Prop50
 90
       50
102
RTVSPost2010PropOp50
 70
     1
102
RTVSPost2010Prop51ColorIndex
 90
      256
102
RTVSPost2010Prop51ColorRGB
 90
-16777216
102
RTVSPost2010PropOp51
 70
     0
102
RTVSPost2010Prop52
140
1.0
102
RTVSPost2010PropOp52
 70
     0
102
RTVSPost2010Prop53
 90
        2
102
RTVSPost2010PropOp53
 70
     1
102
RTVSPost2010Prop54
  1
strokes_ogs.tif
102
RTVSPost2010PropOp54
 70
     1
102
RTVSPost2010Prop55
280
     0
102
RTVSPost2010PropOp55
 70
     1
102
RTVSPost2010Prop56
140
1.0
102
RTVSPost2010PropOp56
 70
     1
102
RTVSPost2010Prop57
140
1.0
102
RTVSPost2010PropOp57
 70
     1
  0
XRECORD
  5
18D
102
{ACAD_REACTORS
330
18C
102
}
330
18C
100
AcDbXrecord
280
     1
102
RTVSPropertyOp0
 70
     1
102
RTVSPropertyOp1
 70
     1
102
RTVSPropertyOp2
 70
     1
102
RTVSPropertyOp3
 70
     1
102
RTVSPropertyOp4
 70
     1
102
RTVSPropertyOp5
 70
     1
102
RTVSPropertyOp6
 70
     1
102
RTVSPropertyOp7
 70
     1
102
RTVSPropertyOp8
 70
     1
102
RTVSPropertyOp9
 70
     1
102
RTVSPropertyOp10
 70
     1
102
RTVSPropertyOp11
 70
     1
102
RTVSPropertyOp12
 70
     1
102
RTVSPropertyOp13
 70
     1
102
RTVSPropertyOp14
 70
     1
102
RTVSPropertyOp15
 70
     1
102
RTVSPropertyOp16
 70
     1
102
RTVSPropertyOp17
 70
     1
102
RTVSPropertyOp18
 70
     1
102
RTVSPropertyOp19
 70
     1
102
RTVSPropertyOp20
 70
     1
102
RTVSPropertyOp21
 70
     1
102
RTVSPropertyOp22
 70
     1
102
RTVSPropertyOp23
 70
     1
102
RTVSPropertyOp24
 70
     1
102
RTVSPropertyOp25
 70
     1
102
RTVSPropertyOp26
 70
     1
102
RTVSPropertyOp27
 70
     1
102
RTVSPropertyOp28
 70
     1
102
RTVSPropertyOp29
 70
     1
102
RTVSPropertyOp30
 70
     1
102
RTVSPropertyOp31
 70
     1
102
RTVSPropertyOp32
 70
     1
102
RTVSPropertyOp33
 70
     1
102
RTVSPropertyOp34
 70
     1
102
RTVSPropertyOp35
 70
     1
102
RTVSPropertyOp36
 70
     1
102
RTVSPropertyOp37
 70
     1
102
RTVSPropertyOp38
 70
     1
102
RTVSPropertyOp39
 70
     1
102
RTVSPropertyOp40
 70
     1
102
RTVSPropertyOp41
 70
     1
102
RTVSPropertyOp42
 70
     1
102
RTVSPropertyOp43
 70
     1
102
RTVSPropertyOp44
 70
     1
102
RTVSPropertyOp45
 70
     1
102
RTVSPropertyOp46
 70
     1
102
RTVSPropertyOp47
 70
     1
102
RTVSPropertyOp48
 70
     1
102
RTVSPropertyOp49
 70
     1
102
RTVSPropertyOp50
 70
     1
102
RTVSPropertyOp51
 70
     0
102
RTVSPropertyOp52
 70
     0
102
RTVSPropertyOp53
 70
     1
102
RTVSPropertyOp54
 70
     1
102
RTVSPropertyOp55
 70
     1
102
RTVSPropertyOp56
 70
     1
102
RTVSPropertyOp57
 70
     1
102
RTVSPost2010Prop28
280
     0
102
RTVSPost2010PropOp28
 70
     1
102
RTVSPost2010Prop29
280
     1
102
RTVSPost2010PropOp29
 70
     1
102
RTVSPost2010Prop30
280
     1
102
RTVSPost2010PropOp30
 70
     1
102
RTVSPost2010Prop31
280
     0
102
RTVSPost2010PropOp31
 70
     1
102
RTVSPost2010Prop32
280
     0
102
RTVSPost2010PropOp32
 70
     1
102
RTVSPost2010Prop33
280
     0
102
RTVSPost2010PropOp33
 70
     1
102
RTVSPost2010Prop34
280
     0
102
RTVSPost2010PropOp34
 70
     1
102
RTVSPost2010Prop35
280
     0
102
RTVSPost2010PropOp35
 70
     1
102
RTVSPost2010Prop36
280
     0
102
RTVSPost2010PropOp36
 70
     1
102
RTVSPost2010Prop37
 90
       50
102
RTVSPost2010PropOp37
 70
     1
102
RTVSPost2010Prop38
140
0.0
102
RTVSPost2010PropOp38
 70
     1
102
RTVSPost2010Prop39
140
1.0
102
RTVSPost2010PropOp39
 70
     1
102
RTVSPost2010Prop40
 90
        0
102
RTVSPost2010PropOp40
 70
     1
102
RTVSPost2010Prop41ColorIndex
 90
       18
102
RTVSPost2010Prop41ColorRGB
 90
        0
102
RTVSPost2010PropOp41
 70
     1
102
RTVSPost2010Prop42
 90
       50
102
RTVSPost2010PropOp42
 70
     1
102
RTVSPost2010Prop43
 90
        3
102
RTVSPost2010PropOp43
 70
     1
102
RTVSPost2010Prop44ColorIndex
 90
        5
102
RTVSPost2010Prop44ColorRGB
 90
      255
102
RTVSPost2010PropOp44
 70
     1
102
RTVSPost2010Prop45
280
     0
102
RTVSPost2010PropOp45
 70
     1
102
RTVSPost2010Prop46
 90
       50
102
RTVSPost2010PropOp46
 70
     1
102
RTVSPost2010Prop47
 90
       50
102
RTVSPost2010PropOp47
 70
     1
102
RTVSPost2010Prop48
 90
       50
102
RTVSPost2010PropOp48
 70
     1
102
RTVSPost2010Prop49
280
     0
102
RTVSPost2010PropOp49
 70
     1
102
RTVSPost2010Prop50
 90
       50
102
RTVSPost2010PropOp50
 70
     1
102
RTVSPost2010Prop51ColorIndex
 90
      256
102
RTVSPost2010Prop51ColorRGB
 90
-16777216
102
RTVSPost2010PropOp51
 70
     0
102
RTVSPost2010Prop52
140
1.0
102
RTVSPost2010PropOp52
 70
     0
102
RTVSPost2010Prop53
 90
        2
102
RTVSPost2010PropOp53
 70
     1
102
RTVSPost2010Prop54
  1
strokes_ogs.tif
102
RTVSPost2010PropOp54
 70
     1
102
RTVSPost2010Prop55
280
     0
102
RTVSPost2010PropOp55
 70
     1
102
RTVSPost2010Prop56
140
1.0
102
RTVSPost2010PropOp56
 70
     1
102
RTVSPost2010Prop57
140
1.0
102
RTVSPost2010PropOp57
 70
     1
  0
XRECORD
  5
19D
102
{ACAD_REACTORS
330
19C
102
}
330
19C
100
AcDbXrecord
280
     1
102
RTVSPropertyOp0
 70
     0
102
RTVSPropertyOp1
 70
     0
102
RTVSPropertyOp2
 70
     0
102
RTVSPropertyOp3
 70
     0
102
RTVSPropertyOp4
 70
     0
102
RTVSPropertyOp5
 70
     0
102
RTVSPropertyOp6
 70
     0
102
RTVSPropertyOp7
 70
     0
102
RTVSPropertyOp8
 70
     0
102
RTVSPropertyOp9
 70
     0
102
RTVSPropertyOp10
 70
     0
102
RTVSPropertyOp11
 70
     0
102
RTVSPropertyOp12
 70
     0
102
RTVSPropertyOp13
 70
     0
102
RTVSPropertyOp14
 70
     2
102
RTVSPropertyOp15
 70
     0
102
RTVSPropertyOp16
 70
     0
102
RTVSPropertyOp17
 70
     0
102
RTVSPropertyOp18
 70
     0
102
RTVSPropertyOp19
 70
     0
102
RTVSPropertyOp20
 70
     0
102
RTVSPropertyOp21
 70
     0
102
RTVSPropertyOp22
 70
     0
102
RTVSPropertyOp23
 70
     0
102
RTVSPropertyOp24
 70
     0
102
RTVSPropertyOp25
 70
     0
102
RTVSPropertyOp26
 70
     0
102
RTVSPropertyOp27
 70
     0
102
RTVSPropertyOp28
 70
     0
102
RTVSPropertyOp29
 70
     0
102
RTVSPropertyOp30
 70
     0
102
RTVSPropertyOp31
 70
     0
102
RTVSPropertyOp32
 70
     0
102
RTVSPropertyOp33
 70
     0
102
RTVSPropertyOp34
 70
     0
102
RTVSPropertyOp35
 70
     0
102
RTVSPropertyOp36
 70
     0
102
RTVSPropertyOp37
 70
     0
102
RTVSPropertyOp38
 70
     0
102
RTVSPropertyOp39
 70
     0
102
RTVSPropertyOp40
 70
     0
102
RTVSPropertyOp41
 70
     0
102
RTVSPropertyOp42
 70
     0
102
RTVSPropertyOp43
 70
     0
102
RTVSPropertyOp44
 70
     0
102
RTVSPropertyOp45
 70
     0
102
RTVSPropertyOp46
 70
     0
102
RTVSPropertyOp47
 70
     0
102
RTVSPropertyOp48
 70
     0
102
RTVSPropertyOp49
 70
     0
102
RTVSPropertyOp50
 70
     0
102
RTVSPropertyOp51
 70
     0
102
RTVSPropertyOp52
 70
     0
102
RTVSPropertyOp53
 70
     0
102
RTVSPropertyOp54
 70
     0
102
RTVSPropertyOp55
 70
     0
102
RTVSPropertyOp56
 70
     0
102
RTVSPropertyOp57
 70
     0
102
RTVSPost2010Prop28
280
     0
102
RTVSPost2010PropOp28
 70
     0
102
RTVSPost2010Prop29
280
     1
102
RTVSPost2010PropOp29
 70
     0
102
RTVSPost2010Prop30
280
     1
102
RTVSPost2010PropOp30
 70
     0
102
RTVSPost2010Prop31
280
     0
102
RTVSPost2010PropOp31
 70
     0
102
RTVSPost2010Prop32
280
     0
102
RTVSPost2010PropOp32
 70
     0
102
RTVSPost2010Prop33
280
     0
102
RTVSPost2010PropOp33
 70
     0
102
RTVSPost2010Prop34
280
     0
102
RTVSPost2010PropOp34
 70
     0
102
RTVSPost2010Prop35
280
     0
102
RTVSPost2010PropOp35
 70
     0
102
RTVSPost2010Prop36
280
     0
102
RTVSPost2010PropOp36
 70
     0
102
RTVSPost2010Prop37
 90
       50
102
RTVSPost2010PropOp37
 70
     0
102
RTVSPost2010Prop38
140
0.0
102
RTVSPost2010PropOp38
 70
     0
102
RTVSPost2010Prop39
140
1.0
102
RTVSPost2010PropOp39
 70
     0
102
RTVSPost2010Prop40
 90
        0
102
RTVSPost2010PropOp40
 70
     0
102
RTVSPost2010Prop41ColorIndex
 90
       18
102
RTVSPost2010Prop41ColorRGB
 90
        0
102
RTVSPost2010PropOp41
 70
     0
102
RTVSPost2010Prop42
 90
       50
102
RTVSPost2010PropOp42
 70
     0
102
RTVSPost2010Prop43
 90
        3
102
RTVSPost2010PropOp43
 70
     0
102
RTVSPost2010Prop44ColorIndex
 90
        5
102
RTVSPost2010Prop44ColorRGB
 90
      255
102
RTVSPost2010PropOp44
 70
     0
102
RTVSPost2010Prop45
280
     0
102
RTVSPost2010PropOp45
 70
     0
102
RTVSPost2010Prop46
 90
       50
102
RTVSPost2010PropOp46
 70
     0
102
RTVSPost2010Prop47
 90
       50
102
RTVSPost2010PropOp47
 70
     0
102
RTVSPost2010Prop48
 90
       50
102
RTVSPost2010PropOp48
 70
     0
102
RTVSPost2010Prop49
280
     0
102
RTVSPost2010PropOp49
 70
     0
102
RTVSPost2010Prop50
 90
       50
102
RTVSPost2010PropOp50
 70
     0
102
RTVSPost2010Prop51ColorIndex
 90
      256
102
RTVSPost2010Prop51ColorRGB
 90
-16777216
102
RTVSPost2010PropOp51
 70
     0
102
RTVSPost2010Prop52
140
1.0
102
RTVSPost2010PropOp52
 70
     0
102
RTVSPost2010Prop53
 90
        2
102
RTVSPost2010PropOp53
 70
     0
102
RTVSPost2010Prop54
  1
strokes_ogs.tif
102
RTVSPost2010PropOp54
 70
     0
102
RTVSPost2010Prop55
280
     0
102
RTVSPost2010PropOp55
 70
     0
102
RTVSPost2010Prop56
140
1.0
102
RTVSPost2010PropOp56
 70
     0
102
RTVSPost2010Prop57
140
1.0
102
RTVSPost2010PropOp57
 70
     0
  0
XRECORD
  5
195
102
{ACAD_REACTORS
330
194
102
}
330
194
100
AcDbXrecord
280
     1
102
RTVSPropertyOp0
 70
     1
102
RTVSPropertyOp1
 70
     1
102
RTVSPropertyOp2
 70
     1
102
RTVSPropertyOp3
 70
     1
102
RTVSPropertyOp4
 70
     1
102
RTVSPropertyOp5
 70
     1
102
RTVSPropertyOp6
 70
     1
102
RTVSPropertyOp7
 70
     1
102
RTVSPropertyOp8
 70
     1
102
RTVSPropertyOp9
 70
     1
102
RTVSPropertyOp10
 70
     1
102
RTVSPropertyOp11
 70
     1
102
RTVSPropertyOp12
 70
     1
102
RTVSPropertyOp13
 70
     1
102
RTVSPropertyOp14
 70
     1
102
RTVSPropertyOp15
 70
     1
102
RTVSPropertyOp16
 70
     1
102
RTVSPropertyOp17
 70
     1
102
RTVSPropertyOp18
 70
     1
102
RTVSPropertyOp19
 70
     1
102
RTVSPropertyOp20
 70
     1
102
RTVSPropertyOp21
 70
     1
102
RTVSPropertyOp22
 70
     1
102
RTVSPropertyOp23
 70
     1
102
RTVSPropertyOp24
 70
     1
102
RTVSPropertyOp25
 70
     1
102
RTVSPropertyOp26
 70
     1
102
RTVSPropertyOp27
 70
     1
102
RTVSPropertyOp28
 70
     1
102
RTVSPropertyOp29
 70
     1
102
RTVSPropertyOp30
 70
     1
102
RTVSPropertyOp31
 70
     1
102
RTVSPropertyOp32
 70
     1
102
RTVSPropertyOp33
 70
     1
102
RTVSPropertyOp34
 70
     1
102
RTVSPropertyOp35
 70
     1
102
RTVSPropertyOp36
 70
     1
102
RTVSPropertyOp37
 70
     1
102
RTVSPropertyOp38
 70
     1
102
RTVSPropertyOp39
 70
     1
102
RTVSPropertyOp40
 70
     1
102
RTVSPropertyOp41
 70
     1
102
RTVSPropertyOp42
 70
     1
102
RTVSPropertyOp43
 70
     1
102
RTVSPropertyOp44
 70
     1
102
RTVSPropertyOp45
 70
     1
102
RTVSPropertyOp46
 70
     1
102
RTVSPropertyOp47
 70
     1
102
RTVSPropertyOp48
 70
     1
102
RTVSPropertyOp49
 70
     1
102
RTVSPropertyOp50
 70
     1
102
RTVSPropertyOp51
 70
     0
102
RTVSPropertyOp52
 70
     0
102
RTVSPropertyOp53
 70
     1
102
RTVSPropertyOp54
 70
     1
102
RTVSPropertyOp55
 70
     1
102
RTVSPropertyOp56
 70
     1
102
RTVSPropertyOp57
 70
     1
102
RTVSPost2010Prop28
280
     0
102
RTVSPost2010PropOp28
 70
     1
102
RTVSPost2010Prop29
280
     1
102
RTVSPost2010PropOp29
 70
     1
102
RTVSPost2010Prop30
280
     1
102
RTVSPost2010PropOp30
 70
     1
102
RTVSPost2010Prop31
280
     0
102
RTVSPost2010PropOp31
 70
     1
102
RTVSPost2010Prop32
280
     0
102
RTVSPost2010PropOp32
 70
     1
102
RTVSPost2010Prop33
280
     0
102
RTVSPost2010PropOp33
 70
     1
102
RTVSPost2010Prop34
280
     0
102
RTVSPost2010PropOp34
 70
     1
102
RTVSPost2010Prop35
280
     0
102
RTVSPost2010PropOp35
 70
     1
102
RTVSPost2010Prop36
280
     0
102
RTVSPost2010PropOp36
 70
     1
102
RTVSPost2010Prop37
 90
       50
102
RTVSPost2010PropOp37
 70
     1
102
RTVSPost2010Prop38
140
0.0
102
RTVSPost2010PropOp38
 70
     1
102
RTVSPost2010Prop39
140
1.0
102
RTVSPost2010PropOp39
 70
     1
102
RTVSPost2010Prop40
 90
        0
102
RTVSPost2010PropOp40
 70
     1
102
RTVSPost2010Prop41ColorIndex
 90
       18
102
RTVSPost2010Prop41ColorRGB
 90
        0
102
RTVSPost2010PropOp41
 70
     1
102
RTVSPost2010Prop42
 90
       50
102
RTVSPost2010PropOp42
 70
     1
102
RTVSPost2010Prop43
 90
        3
102
RTVSPost2010PropOp43
 70
     1
102
RTVSPost2010Prop44ColorIndex
 90
        5
102
RTVSPost2010Prop44ColorRGB
 90
      255
102
RTVSPost2010PropOp44
 70
     1
102
RTVSPost2010Prop45
280
     0
102
RTVSPost2010PropOp45
 70
     1
102
RTVSPost2010Prop46
 90
       50
102
RTVSPost2010PropOp46
 70
     1
102
RTVSPost2010Prop47
 90
       50
102
RTVSPost2010PropOp47
 70
     1
102
RTVSPost2010Prop48
 90
       50
102
RTVSPost2010PropOp48
 70
     1
102
RTVSPost2010Prop49
280
     0
102
RTVSPost2010PropOp49
 70
     1
102
RTVSPost2010Prop50
 90
       50
102
RTVSPost2010PropOp50
 70
     1
102
RTVSPost2010Prop51ColorIndex
 90
      256
102
RTVSPost2010Prop51ColorRGB
 90
-16777216
102
RTVSPost2010PropOp51
 70
     0
102
RTVSPost2010Prop52
140
1.0
102
RTVSPost2010PropOp52
 70
     0
102
RTVSPost2010Prop53
 90
        2
102
RTVSPost2010PropOp53
 70
     1
102
RTVSPost2010Prop54
  1
strokes_ogs.tif
102
RTVSPost2010PropOp54
 70
     1
102
RTVSPost2010Prop55
280
     0
102
RTVSPost2010PropOp55
 70
     1
102
RTVSPost2010Prop56
140
1.0
102
RTVSPost2010PropOp56
 70
     1
102
RTVSPost2010Prop57
140
1.0
102
RTVSPost2010PropOp57
 70
     1
  0
XRECORD
  5
179
102
{ACAD_REACTORS
330
178
102
}
330
178
100
AcDbXrecord
280
     1
102
RTVSPropertyOp0
 70
     1
102
RTVSPropertyOp1
 70
     1
102
RTVSPropertyOp2
 70
     1
102
RTVSPropertyOp3
 70
     1
102
RTVSPropertyOp4
 70
     1
102
RTVSPropertyOp5
 70
     1
102
RTVSPropertyOp6
 70
     1
102
RTVSPropertyOp7
 70
     1
102
RTVSPropertyOp8
 70
     1
102
RTVSPropertyOp9
 70
     1
102
RTVSPropertyOp10
 70
     1
102
RTVSPropertyOp11
 70
     1
102
RTVSPropertyOp12
 70
     1
102
RTVSPropertyOp13
 70
     1
102
RTVSPropertyOp14
 70
     1
102
RTVSPropertyOp15
 70
     1
102
RTVSPropertyOp16
 70
     1
102
RTVSPropertyOp17
 70
     1
102
RTVSPropertyOp18
 70
     1
102
RTVSPropertyOp19
 70
     1
102
RTVSPropertyOp20
 70
     1
102
RTVSPropertyOp21
 70
     1
102
RTVSPropertyOp22
 70
     1
102
RTVSPropertyOp23
 70
     1
102
RTVSPropertyOp24
 70
     1
102
RTVSPropertyOp25
 70
     1
102
RTVSPropertyOp26
 70
     1
102
RTVSPropertyOp27
 70
     1
102
RTVSPropertyOp28
 70
     1
102
RTVSPropertyOp29
 70
     1
102
RTVSPropertyOp30
 70
     1
102
RTVSPropertyOp31
 70
     1
102
RTVSPropertyOp32
 70
     1
102
RTVSPropertyOp33
 70
     1
102
RTVSPropertyOp34
 70
     1
102
RTVSPropertyOp35
 70
     1
102
RTVSPropertyOp36
 70
     1
102
RTVSPropertyOp37
 70
     1
102
RTVSPropertyOp38
 70
     1
102
RTVSPropertyOp39
 70
     1
102
RTVSPropertyOp40
 70
     1
102
RTVSPropertyOp41
 70
     1
102
RTVSPropertyOp42
 70
     1
102
RTVSPropertyOp43
 70
     1
102
RTVSPropertyOp44
 70
     1
102
RTVSPropertyOp45
 70
     1
102
RTVSPropertyOp46
 70
     1
102
RTVSPropertyOp47
 70
     1
102
RTVSPropertyOp48
 70
     1
102
RTVSPropertyOp49
 70
     1
102
RTVSPropertyOp50
 70
     1
102
RTVSPropertyOp51
 70
     0
102
RTVSPropertyOp52
 70
     0
102
RTVSPropertyOp53
 70
     1
102
RTVSPropertyOp54
 70
     1
102
RTVSPropertyOp55
 70
     1
102
RTVSPropertyOp56
 70
     1
102
RTVSPropertyOp57
 70
     1
102
RTVSPost2010Prop28
280
     0
102
RTVSPost2010PropOp28
 70
     1
102
RTVSPost2010Prop29
280
     1
102
RTVSPost2010PropOp29
 70
     1
102
RTVSPost2010Prop30
280
     1
102
RTVSPost2010PropOp30
 70
     1
102
RTVSPost2010Prop31
280
     0
102
RTVSPost2010PropOp31
 70
     1
102
RTVSPost2010Prop32
280
     0
102
RTVSPost2010PropOp32
 70
     1
102
RTVSPost2010Prop33
280
     0
102
RTVSPost2010PropOp33
 70
     1
102
RTVSPost2010Prop34
280
     0
102
RTVSPost2010PropOp34
 70
     1
102
RTVSPost2010Prop35
280
     0
102
RTVSPost2010PropOp35
 70
     1
102
RTVSPost2010Prop36
280
     0
102
RTVSPost2010PropOp36
 70
     1
102
RTVSPost2010Prop37
 90
       50
102
RTVSPost2010PropOp37
 70
     1
102
RTVSPost2010Prop38
140
0.0
102
RTVSPost2010PropOp38
 70
     1
102
RTVSPost2010Prop39
140
1.0
102
RTVSPost2010PropOp39
 70
     1
102
RTVSPost2010Prop40
 90
        0
102
RTVSPost2010PropOp40
 70
     1
102
RTVSPost2010Prop41ColorIndex
 90
       18
102
RTVSPost2010Prop41ColorRGB
 90
        0
102
RTVSPost2010PropOp41
 70
     1
102
RTVSPost2010Prop42
 90
       50
102
RTVSPost2010PropOp42
 70
     1
102
RTVSPost2010Prop43
 90
        3
102
RTVSPost2010PropOp43
 70
     1
102
RTVSPost2010Prop44ColorIndex
 90
        5
102
RTVSPost2010Prop44ColorRGB
 90
      255
102
RTVSPost2010PropOp44
 70
     1
102
RTVSPost2010Prop45
280
     0
102
RTVSPost2010PropOp45
 70
     1
102
RTVSPost2010Prop46
 90
       50
102
RTVSPost2010PropOp46
 70
     1
102
RTVSPost2010Prop47
 90
       50
102
RTVSPost2010PropOp47
 70
     1
102
RTVSPost2010Prop48
 90
       50
102
RTVSPost2010PropOp48
 70
     1
102
RTVSPost2010Prop49
280
     0
102
RTVSPost2010PropOp49
 70
     1
102
RTVSPost2010Prop50
 90
       50
102
RTVSPost2010PropOp50
 70
     1
102
RTVSPost2010Prop51ColorIndex
 90
      256
102
RTVSPost2010Prop51ColorRGB
 90
-16777216
102
RTVSPost2010PropOp51
 70
     0
102
RTVSPost2010Prop52
140
1.0
102
RTVSPost2010PropOp52
 70
     0
102
RTVSPost2010Prop53
 90
        2
102
RTVSPost2010PropOp53
 70
     1
102
RTVSPost2010Prop54
  1
strokes_ogs.tif
102
RTVSPost2010PropOp54
 70
     1
102
RTVSPost2010Prop55
280
     0
102
RTVSPost2010PropOp55
 70
     1
102
RTVSPost2010Prop56
140
1.0
102
RTVSPost2010PropOp56
 70
     1
102
RTVSPost2010Prop57
140
1.0
102
RTVSPost2010PropOp57
 70
     1
  0
XRECORD
  5
17B
102
{ACAD_REACTORS
330
17A
102
}
330
17A
100
AcDbXrecord
280
     1
102
RTVSPropertyOp0
 70
     1
102
RTVSPropertyOp1
 70
     1
102
RTVSPropertyOp2
 70
     1
102
RTVSPropertyOp3
 70
     1
102
RTVSPropertyOp4
 70
     1
102
RTVSPropertyOp5
 70
     1
102
RTVSPropertyOp6
 70
     1
102
RTVSPropertyOp7
 70
     1
102
RTVSPropertyOp8
 70
     1
102
RTVSPropertyOp9
 70
     1
102
RTVSPropertyOp10
 70
     1
102
RTVSPropertyOp11
 70
     1
102
RTVSPropertyOp12
 70
     1
102
RTVSPropertyOp13
 70
     1
102
RTVSPropertyOp14
 70
     1
102
RTVSPropertyOp15
 70
     1
102
RTVSPropertyOp16
 70
     1
102
RTVSPropertyOp17
 70
     1
102
RTVSPropertyOp18
 70
     1
102
RTVSPropertyOp19
 70
     1
102
RTVSPropertyOp20
 70
     1
102
RTVSPropertyOp21
 70
     1
102
RTVSPropertyOp22
 70
     1
102
RTVSPropertyOp23
 70
     1
102
RTVSPropertyOp24
 70
     1
102
RTVSPropertyOp25
 70
     1
102
RTVSPropertyOp26
 70
     1
102
RTVSPropertyOp27
 70
     1
102
RTVSPropertyOp28
 70
     1
102
RTVSPropertyOp29
 70
     1
102
RTVSPropertyOp30
 70
     1
102
RTVSPropertyOp31
 70
     1
102
RTVSPropertyOp32
 70
     1
102
RTVSPropertyOp33
 70
     1
102
RTVSPropertyOp34
 70
     1
102
RTVSPropertyOp35
 70
     1
102
RTVSPropertyOp36
 70
     1
102
RTVSPropertyOp37
 70
     1
102
RTVSPropertyOp38
 70
     1
102
RTVSPropertyOp39
 70
     1
102
RTVSPropertyOp40
 70
     1
102
RTVSPropertyOp41
 70
     1
102
RTVSPropertyOp42
 70
     1
102
RTVSPropertyOp43
 70
     1
102
RTVSPropertyOp44
 70
     1
102
RTVSPropertyOp45
 70
     1
102
RTVSPropertyOp46
 70
     1
102
RTVSPropertyOp47
 70
     1
102
RTVSPropertyOp48
 70
     1
102
RTVSPropertyOp49
 70
     1
102
RTVSPropertyOp50
 70
     1
102
RTVSPropertyOp51
 70
     0
102
RTVSPropertyOp52
 70
     0
102
RTVSPropertyOp53
 70
     1
102
RTVSPropertyOp54
 70
     1
102
RTVSPropertyOp55
 70
     1
102
RTVSPropertyOp56
 70
     1
102
RTVSPropertyOp57
 70
     1
102
RTVSPost2010Prop28
280
     0
102
RTVSPost2010PropOp28
 70
     1
102
RTVSPost2010Prop29
280
     1
102
RTVSPost2010PropOp29
 70
     1
102
RTVSPost2010Prop30
280
     1
102
RTVSPost2010PropOp30
 70
     1
102
RTVSPost2010Prop31
280
     0
102
RTVSPost2010PropOp31
 70
     1
102
RTVSPost2010Prop32
280
     0
102
RTVSPost2010PropOp32
 70
     1
102
RTVSPost2010Prop33
280
     0
102
RTVSPost2010PropOp33
 70
     1
102
RTVSPost2010Prop34
280
     0
102
RTVSPost2010PropOp34
 70
     1
102
RTVSPost2010Prop35
280
     0
102
RTVSPost2010PropOp35
 70
     1
102
RTVSPost2010Prop36
280
     0
102
RTVSPost2010PropOp36
 70
     1
102
RTVSPost2010Prop37
 90
       50
102
RTVSPost2010PropOp37
 70
     1
102
RTVSPost2010Prop38
140
0.0
102
RTVSPost2010PropOp38
 70
     1
102
RTVSPost2010Prop39
140
1.0
102
RTVSPost2010PropOp39
 70
     1
102
RTVSPost2010Prop40
 90
        0
102
RTVSPost2010PropOp40
 70
     1
102
RTVSPost2010Prop41ColorIndex
 90
       18
102
RTVSPost2010Prop41ColorRGB
 90
        0
102
RTVSPost2010PropOp41
 70
     1
102
RTVSPost2010Prop42
 90
       50
102
RTVSPost2010PropOp42
 70
     1
102
RTVSPost2010Prop43
 90
        3
102
RTVSPost2010PropOp43
 70
     1
102
RTVSPost2010Prop44ColorIndex
 90
        5
102
RTVSPost2010Prop44ColorRGB
 90
      255
102
RTVSPost2010PropOp44
 70
     1
102
RTVSPost2010Prop45
280
     0
102
RTVSPost2010PropOp45
 70
     1
102
RTVSPost2010Prop46
 90
       50
102
RTVSPost2010PropOp46
 70
     1
102
RTVSPost2010Prop47
 90
       50
102
RTVSPost2010PropOp47
 70
     1
102
RTVSPost2010Prop48
 90
       50
102
RTVSPost2010PropOp48
 70
     1
102
RTVSPost2010Prop49
280
     0
102
RTVSPost2010PropOp49
 70
     1
102
RTVSPost2010Prop50
 90
       50
102
RTVSPost2010PropOp50
 70
     1
102
RTVSPost2010Prop51ColorIndex
 90
      256
102
RTVSPost2010Prop51ColorRGB
 90
-16777216
102
RTVSPost2010PropOp51
 70
     0
102
RTVSPost2010Prop52
140
1.0
102
RTVSPost2010PropOp52
 70
     0
102
RTVSPost2010Prop53
 90
        2
102
RTVSPost2010PropOp53
 70
     1
102
RTVSPost2010Prop54
  1
strokes_ogs.tif
102
RTVSPost2010PropOp54
 70
     1
102
RTVSPost2010Prop55
280
     0
102
RTVSPost2010PropOp55
 70
     1
102
RTVSPost2010Prop56
140
1.0
102
RTVSPost2010PropOp56
 70
     1
102
RTVSPost2010Prop57
140
1.0
102
RTVSPost2010PropOp57
 70
     1
  0
XRECORD
  5
17D
102
{ACAD_REACTORS
330
17C
102
}
330
17C
100
AcDbXrecord
280
     1
102
RTVSPropertyOp0
 70
     1
102
RTVSPropertyOp1
 70
     1
102
RTVSPropertyOp2
 70
     1
102
RTVSPropertyOp3
 70
     1
102
RTVSPropertyOp4
 70
     1
102
RTVSPropertyOp5
 70
     1
102
RTVSPropertyOp6
 70
     1
102
RTVSPropertyOp7
 70
     1
102
RTVSPropertyOp8
 70
     1
102
RTVSPropertyOp9
 70
     1
102
RTVSPropertyOp10
 70
     1
102
RTVSPropertyOp11
 70
     1
102
RTVSPropertyOp12
 70
     1
102
RTVSPropertyOp13
 70
     1
102
RTVSPropertyOp14
 70
     1
102
RTVSPropertyOp15
 70
     1
102
RTVSPropertyOp16
 70
     1
102
RTVSPropertyOp17
 70
     1
102
RTVSPropertyOp18
 70
     1
102
RTVSPropertyOp19
 70
     1
102
RTVSPropertyOp20
 70
     1
102
RTVSPropertyOp21
 70
     1
102
RTVSPropertyOp22
 70
     1
102
RTVSPropertyOp23
 70
     1
102
RTVSPropertyOp24
 70
     1
102
RTVSPropertyOp25
 70
     1
102
RTVSPropertyOp26
 70
     1
102
RTVSPropertyOp27
 70
     1
102
RTVSPropertyOp28
 70
     1
102
RTVSPropertyOp29
 70
     1
102
RTVSPropertyOp30
 70
     1
102
RTVSPropertyOp31
 70
     1
102
RTVSPropertyOp32
 70
     1
102
RTVSPropertyOp33
 70
     1
102
RTVSPropertyOp34
 70
     1
102
RTVSPropertyOp35
 70
     1
102
RTVSPropertyOp36
 70
     1
102
RTVSPropertyOp37
 70
     1
102
RTVSPropertyOp38
 70
     1
102
RTVSPropertyOp39
 70
     1
102
RTVSPropertyOp40
 70
     1
102
RTVSPropertyOp41
 70
     1
102
RTVSPropertyOp42
 70
     1
102
RTVSPropertyOp43
 70
     1
102
RTVSPropertyOp44
 70
     1
102
RTVSPropertyOp45
 70
     1
102
RTVSPropertyOp46
 70
     1
102
RTVSPropertyOp47
 70
     1
102
RTVSPropertyOp48
 70
     1
102
RTVSPropertyOp49
 70
     1
102
RTVSPropertyOp50
 70
     1
102
RTVSPropertyOp51
 70
     0
102
RTVSPropertyOp52
 70
     0
102
RTVSPropertyOp53
 70
     1
102
RTVSPropertyOp54
 70
     1
102
RTVSPropertyOp55
 70
     1
102
RTVSPropertyOp56
 70
     1
102
RTVSPropertyOp57
 70
     1
102
RTVSPost2010Prop28
280
     0
102
RTVSPost2010PropOp28
 70
     1
102
RTVSPost2010Prop29
280
     1
102
RTVSPost2010PropOp29
 70
     1
102
RTVSPost2010Prop30
280
     1
102
RTVSPost2010PropOp30
 70
     1
102
RTVSPost2010Prop31
280
     0
102
RTVSPost2010PropOp31
 70
     1
102
RTVSPost2010Prop32
280
     0
102
RTVSPost2010PropOp32
 70
     1
102
RTVSPost2010Prop33
280
     0
102
RTVSPost2010PropOp33
 70
     1
102
RTVSPost2010Prop34
280
     0
102
RTVSPost2010PropOp34
 70
     1
102
RTVSPost2010Prop35
280
     0
102
RTVSPost2010PropOp35
 70
     1
102
RTVSPost2010Prop36
280
     0
102
RTVSPost2010PropOp36
 70
     1
102
RTVSPost2010Prop37
 90
       50
102
RTVSPost2010PropOp37
 70
     1
102
RTVSPost2010Prop38
140
0.0
102
RTVSPost2010PropOp38
 70
     1
102
RTVSPost2010Prop39
140
1.0
102
RTVSPost2010PropOp39
 70
     1
102
RTVSPost2010Prop40
 90
        0
102
RTVSPost2010PropOp40
 70
     1
102
RTVSPost2010Prop41ColorIndex
 90
       18
102
RTVSPost2010Prop41ColorRGB
 90
        0
102
RTVSPost2010PropOp41
 70
     1
102
RTVSPost2010Prop42
 90
       50
102
RTVSPost2010PropOp42
 70
     1
102
RTVSPost2010Prop43
 90
        3
102
RTVSPost2010PropOp43
 70
     1
102
RTVSPost2010Prop44ColorIndex
 90
        5
102
RTVSPost2010Prop44ColorRGB
 90
      255
102
RTVSPost2010PropOp44
 70
     1
102
RTVSPost2010Prop45
280
     0
102
RTVSPost2010PropOp45
 70
     1
102
RTVSPost2010Prop46
 90
       50
102
RTVSPost2010PropOp46
 70
     1
102
RTVSPost2010Prop47
 90
       50
102
RTVSPost2010PropOp47
 70
     1
102
RTVSPost2010Prop48
 90
       50
102
RTVSPost2010PropOp48
 70
     1
102
RTVSPost2010Prop49
280
     0
102
RTVSPost2010PropOp49
 70
     1
102
RTVSPost2010Prop50
 90
       50
102
RTVSPost2010PropOp50
 70
     1
102
RTVSPost2010Prop51ColorIndex
 90
      256
102
RTVSPost2010Prop51ColorRGB
 90
-16777216
102
RTVSPost2010PropOp51
 70
     0
102
RTVSPost2010Prop52
140
1.0
102
RTVSPost2010PropOp52
 70
     0
102
RTVSPost2010Prop53
 90
        2
102
RTVSPost2010PropOp53
 70
     1
102
RTVSPost2010Prop54
  1
strokes_ogs.tif
102
RTVSPost2010PropOp54
 70
     1
102
RTVSPost2010Prop55
280
     0
102
RTVSPost2010PropOp55
 70
     1
102
RTVSPost2010Prop56
140
1.0
102
RTVSPost2010PropOp56
 70
     1
102
RTVSPost2010Prop57
140
1.0
102
RTVSPost2010PropOp57
 70
     1
  0
XRECORD
  5
17F
102
{ACAD_REACTORS
330
17E
102
}
330
17E
100
AcDbXrecord
280
     1
102
RTVSPropertyOp0
 70
     1
102
RTVSPropertyOp1
 70
     1
102
RTVSPropertyOp2
 70
     1
102
RTVSPropertyOp3
 70
     1
102
RTVSPropertyOp4
 70
     1
102
RTVSPropertyOp5
 70
     1
102
RTVSPropertyOp6
 70
     1
102
RTVSPropertyOp7
 70
     1
102
RTVSPropertyOp8
 70
     1
102
RTVSPropertyOp9
 70
     1
102
RTVSPropertyOp10
 70
     1
102
RTVSPropertyOp11
 70
     1
102
RTVSPropertyOp12
 70
     1
102
RTVSPropertyOp13
 70
     1
102
RTVSPropertyOp14
 70
     1
102
RTVSPropertyOp15
 70
     1
102
RTVSPropertyOp16
 70
     1
102
RTVSPropertyOp17
 70
     1
102
RTVSPropertyOp18
 70
     1
102
RTVSPropertyOp19
 70
     1
102
RTVSPropertyOp20
 70
     1
102
RTVSPropertyOp21
 70
     1
102
RTVSPropertyOp22
 70
     1
102
RTVSPropertyOp23
 70
     1
102
RTVSPropertyOp24
 70
     1
102
RTVSPropertyOp25
 70
     1
102
RTVSPropertyOp26
 70
     1
102
RTVSPropertyOp27
 70
     1
102
RTVSPropertyOp28
 70
     1
102
RTVSPropertyOp29
 70
     1
102
RTVSPropertyOp30
 70
     1
102
RTVSPropertyOp31
 70
     1
102
RTVSPropertyOp32
 70
     1
102
RTVSPropertyOp33
 70
     1
102
RTVSPropertyOp34
 70
     1
102
RTVSPropertyOp35
 70
     1
102
RTVSPropertyOp36
 70
     1
102
RTVSPropertyOp37
 70
     1
102
RTVSPropertyOp38
 70
     1
102
RTVSPropertyOp39
 70
     1
102
RTVSPropertyOp40
 70
     1
102
RTVSPropertyOp41
 70
     1
102
RTVSPropertyOp42
 70
     1
102
RTVSPropertyOp43
 70
     1
102
RTVSPropertyOp44
 70
     1
102
RTVSPropertyOp45
 70
     1
102
RTVSPropertyOp46
 70
     1
102
RTVSPropertyOp47
 70
     1
102
RTVSPropertyOp48
 70
     1
102
RTVSPropertyOp49
 70
     1
102
RTVSPropertyOp50
 70
     1
102
RTVSPropertyOp51
 70
     0
102
RTVSPropertyOp52
 70
     0
102
RTVSPropertyOp53
 70
     1
102
RTVSPropertyOp54
 70
     1
102
RTVSPropertyOp55
 70
     1
102
RTVSPropertyOp56
 70
     1
102
RTVSPropertyOp57
 70
     1
102
RTVSPost2010Prop28
280
     0
102
RTVSPost2010PropOp28
 70
     1
102
RTVSPost2010Prop29
280
     1
102
RTVSPost2010PropOp29
 70
     1
102
RTVSPost2010Prop30
280
     1
102
RTVSPost2010PropOp30
 70
     1
102
RTVSPost2010Prop31
280
     0
102
RTVSPost2010PropOp31
 70
     1
102
RTVSPost2010Prop32
280
     0
102
RTVSPost2010PropOp32
 70
     1
102
RTVSPost2010Prop33
280
     0
102
RTVSPost2010PropOp33
 70
     1
102
RTVSPost2010Prop34
280
     0
102
RTVSPost2010PropOp34
 70
     1
102
RTVSPost2010Prop35
280
     0
102
RTVSPost2010PropOp35
 70
     1
102
RTVSPost2010Prop36
280
     0
102
RTVSPost2010PropOp36
 70
     1
102
RTVSPost2010Prop37
 90
       50
102
RTVSPost2010PropOp37
 70
     1
102
RTVSPost2010Prop38
140
0.0
102
RTVSPost2010PropOp38
 70
     1
102
RTVSPost2010Prop39
140
1.0
102
RTVSPost2010PropOp39
 70
     1
102
RTVSPost2010Prop40
 90
        0
102
RTVSPost2010PropOp40
 70
     1
102
RTVSPost2010Prop41ColorIndex
 90
       18
102
RTVSPost2010Prop41ColorRGB
 90
        0
102
RTVSPost2010PropOp41
 70
     1
102
RTVSPost2010Prop42
 90
       50
102
RTVSPost2010PropOp42
 70
     1
102
RTVSPost2010Prop43
 90
        3
102
RTVSPost2010PropOp43
 70
     1
102
RTVSPost2010Prop44ColorIndex
 90
        5
102
RTVSPost2010Prop44ColorRGB
 90
      255
102
RTVSPost2010PropOp44
 70
     1
102
RTVSPost2010Prop45
280
     0
102
RTVSPost2010PropOp45
 70
     1
102
RTVSPost2010Prop46
 90
       50
102
RTVSPost2010PropOp46
 70
     1
102
RTVSPost2010Prop47
 90
       50
102
RTVSPost2010PropOp47
 70
     1
102
RTVSPost2010Prop48
 90
       50
102
RTVSPost2010PropOp48
 70
     1
102
RTVSPost2010Prop49
280
     0
102
RTVSPost2010PropOp49
 70
     1
102
RTVSPost2010Prop50
 90
       50
102
RTVSPost2010PropOp50
 70
     1
102
RTVSPost2010Prop51ColorIndex
 90
      256
102
RTVSPost2010Prop51ColorRGB
 90
-16777216
102
RTVSPost2010PropOp51
 70
     0
102
RTVSPost2010Prop52
140
1.0
102
RTVSPost2010PropOp52
 70
     0
102
RTVSPost2010Prop53
 90
        2
102
RTVSPost2010PropOp53
 70
     1
102
RTVSPost2010Prop54
  1
strokes_ogs.tif
102
RTVSPost2010PropOp54
 70
     1
102
RTVSPost2010Prop55
280
     0
102
RTVSPost2010PropOp55
 70
     1
102
RTVSPost2010Prop56
140
1.0
102
RTVSPost2010PropOp56
 70
     1
102
RTVSPost2010Prop57
140
1.0
102
RTVSPost2010PropOp57
 70
     1
  0
XRECORD
  5
185
102
{ACAD_REACTORS
330
184
102
}
330
184
100
AcDbXrecord
280
     1
102
RTVSPropertyOp0
 70
     1
102
RTVSPropertyOp1
 70
     1
102
RTVSPropertyOp2
 70
     1
102
RTVSPropertyOp3
 70
     1
102
RTVSPropertyOp4
 70
     1
102
RTVSPropertyOp5
 70
     1
102
RTVSPropertyOp6
 70
     1
102
RTVSPropertyOp7
 70
     1
102
RTVSPropertyOp8
 70
     1
102
RTVSPropertyOp9
 70
     1
102
RTVSPropertyOp10
 70
     1
102
RTVSPropertyOp11
 70
     1
102
RTVSPropertyOp12
 70
     1
102
RTVSPropertyOp13
 70
     1
102
RTVSPropertyOp14
 70
     1
102
RTVSPropertyOp15
 70
     1
102
RTVSPropertyOp16
 70
     1
102
RTVSPropertyOp17
 70
     1
102
RTVSPropertyOp18
 70
     1
102
RTVSPropertyOp19
 70
     1
102
RTVSPropertyOp20
 70
     1
102
RTVSPropertyOp21
 70
     1
102
RTVSPropertyOp22
 70
     1
102
RTVSPropertyOp23
 70
     1
102
RTVSPropertyOp24
 70
     1
102
RTVSPropertyOp25
 70
     1
102
RTVSPropertyOp26
 70
     1
102
RTVSPropertyOp27
 70
     1
102
RTVSPropertyOp28
 70
     1
102
RTVSPropertyOp29
 70
     1
102
RTVSPropertyOp30
 70
     1
102
RTVSPropertyOp31
 70
     1
102
RTVSPropertyOp32
 70
     1
102
RTVSPropertyOp33
 70
     1
102
RTVSPropertyOp34
 70
     1
102
RTVSPropertyOp35
 70
     1
102
RTVSPropertyOp36
 70
     1
102
RTVSPropertyOp37
 70
     1
102
RTVSPropertyOp38
 70
     1
102
RTVSPropertyOp39
 70
     1
102
RTVSPropertyOp40
 70
     1
102
RTVSPropertyOp41
 70
     1
102
RTVSPropertyOp42
 70
     1
102
RTVSPropertyOp43
 70
     1
102
RTVSPropertyOp44
 70
     1
102
RTVSPropertyOp45
 70
     1
102
RTVSPropertyOp46
 70
     1
102
RTVSPropertyOp47
 70
     1
102
RTVSPropertyOp48
 70
     1
102
RTVSPropertyOp49
 70
     1
102
RTVSPropertyOp50
 70
     1
102
RTVSPropertyOp51
 70
     0
102
RTVSPropertyOp52
 70
     0
102
RTVSPropertyOp53
 70
     1
102
RTVSPropertyOp54
 70
     1
102
RTVSPropertyOp55
 70
     1
102
RTVSPropertyOp56
 70
     1
102
RTVSPropertyOp57
 70
     1
102
RTVSPost2010Prop28
280
     0
102
RTVSPost2010PropOp28
 70
     1
102
RTVSPost2010Prop29
280
     1
102
RTVSPost2010PropOp29
 70
     1
102
RTVSPost2010Prop30
280
     1
102
RTVSPost2010PropOp30
 70
     1
102
RTVSPost2010Prop31
280
     0
102
RTVSPost2010PropOp31
 70
     1
102
RTVSPost2010Prop32
280
     0
102
RTVSPost2010PropOp32
 70
     1
102
RTVSPost2010Prop33
280
     0
102
RTVSPost2010PropOp33
 70
     1
102
RTVSPost2010Prop34
280
     0
102
RTVSPost2010PropOp34
 70
     1
102
RTVSPost2010Prop35
280
     0
102
RTVSPost2010PropOp35
 70
     1
102
RTVSPost2010Prop36
280
     0
102
RTVSPost2010PropOp36
 70
     1
102
RTVSPost2010Prop37
 90
       50
102
RTVSPost2010PropOp37
 70
     1
102
RTVSPost2010Prop38
140
0.0
102
RTVSPost2010PropOp38
 70
     1
102
RTVSPost2010Prop39
140
1.0
102
RTVSPost2010PropOp39
 70
     1
102
RTVSPost2010Prop40
 90
        0
102
RTVSPost2010PropOp40
 70
     1
102
RTVSPost2010Prop41ColorIndex
 90
       18
102
RTVSPost2010Prop41ColorRGB
 90
        0
102
RTVSPost2010PropOp41
 70
     1
102
RTVSPost2010Prop42
 90
       50
102
RTVSPost2010PropOp42
 70
     1
102
RTVSPost2010Prop43
 90
        3
102
RTVSPost2010PropOp43
 70
     1
102
RTVSPost2010Prop44ColorIndex
 90
        5
102
RTVSPost2010Prop44ColorRGB
 90
      255
102
RTVSPost2010PropOp44
 70
     1
102
RTVSPost2010Prop45
280
     0
102
RTVSPost2010PropOp45
 70
     1
102
RTVSPost2010Prop46
 90
       50
102
RTVSPost2010PropOp46
 70
     1
102
RTVSPost2010Prop47
 90
       50
102
RTVSPost2010PropOp47
 70
     1
102
RTVSPost2010Prop48
 90
       50
102
RTVSPost2010PropOp48
 70
     1
102
RTVSPost2010Prop49
280
     0
102
RTVSPost2010PropOp49
 70
     1
102
RTVSPost2010Prop50
 90
       50
102
RTVSPost2010PropOp50
 70
     1
102
RTVSPost2010Prop51ColorIndex
 90
      256
102
RTVSPost2010Prop51ColorRGB
 90
-16777216
102
RTVSPost2010PropOp51
 70
     0
102
RTVSPost2010Prop52
140
1.0
102
RTVSPost2010PropOp52
 70
     0
102
RTVSPost2010Prop53
 90
        2
102
RTVSPost2010PropOp53
 70
     1
102
RTVSPost2010Prop54
  1
strokes_ogs.tif
102
RTVSPost2010PropOp54
 70
     1
102
RTVSPost2010Prop55
280
     0
102
RTVSPost2010PropOp55
 70
     1
102
RTVSPost2010Prop56
140
1.0
102
RTVSPost2010PropOp56
 70
     1
102
RTVSPost2010Prop57
140
1.0
102
RTVSPost2010PropOp57
 70
     1
  0
XRECORD
  5
199
102
{ACAD_REACTORS
330
198
102
}
330
198
100
AcDbXrecord
280
     1
102
RTVSPropertyOp0
 70
     0
102
RTVSPropertyOp1
 70
     0
102
RTVSPropertyOp2
 70
     0
102
RTVSPropertyOp3
 70
     0
102
RTVSPropertyOp4
 70
     0
102
RTVSPropertyOp5
 70
     0
102
RTVSPropertyOp6
 70
     0
102
RTVSPropertyOp7
 70
     0
102
RTVSPropertyOp8
 70
     0
102
RTVSPropertyOp9
 70
     0
102
RTVSPropertyOp10
 70
     0
102
RTVSPropertyOp11
 70
     0
102
RTVSPropertyOp12
 70
     0
102
RTVSPropertyOp13
 70
     0
102
RTVSPropertyOp14
 70
     2
102
RTVSPropertyOp15
 70
     0
102
RTVSPropertyOp16
 70
     0
102
RTVSPropertyOp17
 70
     0
102
RTVSPropertyOp18
 70
     0
102
RTVSPropertyOp19
 70
     0
102
RTVSPropertyOp20
 70
     0
102
RTVSPropertyOp21
 70
     0
102
RTVSPropertyOp22
 70
     0
102
RTVSPropertyOp23
 70
     0
102
RTVSPropertyOp24
 70
     0
102
RTVSPropertyOp25
 70
     0
102
RTVSPropertyOp26
 70
     0
102
RTVSPropertyOp27
 70
     0
102
RTVSPropertyOp28
 70
     0
102
RTVSPropertyOp29
 70
     0
102
RTVSPropertyOp30
 70
     0
102
RTVSPropertyOp31
 70
     0
102
RTVSPropertyOp32
 70
     0
102
RTVSPropertyOp33
 70
     0
102
RTVSPropertyOp34
 70
     0
102
RTVSPropertyOp35
 70
     0
102
RTVSPropertyOp36
 70
     0
102
RTVSPropertyOp37
 70
     0
102
RTVSPropertyOp38
 70
     0
102
RTVSPropertyOp39
 70
     0
102
RTVSPropertyOp40
 70
     0
102
RTVSPropertyOp41
 70
     0
102
RTVSPropertyOp42
 70
     0
102
RTVSPropertyOp43
 70
     0
102
RTVSPropertyOp44
 70
     0
102
RTVSPropertyOp45
 70
     0
102
RTVSPropertyOp46
 70
     0
102
RTVSPropertyOp47
 70
     0
102
RTVSPropertyOp48
 70
     0
102
RTVSPropertyOp49
 70
     0
102
RTVSPropertyOp50
 70
     0
102
RTVSPropertyOp51
 70
     0
102
RTVSPropertyOp52
 70
     0
102
RTVSPropertyOp53
 70
     0
102
RTVSPropertyOp54
 70
     0
102
RTVSPropertyOp55
 70
     0
102
RTVSPropertyOp56
 70
     0
102
RTVSPropertyOp57
 70
     0
102
RTVSPost2010Prop28
280
     0
102
RTVSPost2010PropOp28
 70
     0
102
RTVSPost2010Prop29
280
     1
102
RTVSPost2010PropOp29
 70
     0
102
RTVSPost2010Prop30
280
     1
102
RTVSPost2010PropOp30
 70
     0
102
RTVSPost2010Prop31
280
     0
102
RTVSPost2010PropOp31
 70
     0
102
RTVSPost2010Prop32
280
     0
102
RTVSPost2010PropOp32
 70
     0
102
RTVSPost2010Prop33
280
     0
102
RTVSPost2010PropOp33
 70
     0
102
RTVSPost2010Prop34
280
     0
102
RTVSPost2010PropOp34
 70
     0
102
RTVSPost2010Prop35
280
     0
102
RTVSPost2010PropOp35
 70
     0
102
RTVSPost2010Prop36
280
     0
102
RTVSPost2010PropOp36
 70
     0
102
RTVSPost2010Prop37
 90
       50
102
RTVSPost2010PropOp37
 70
     0
102
RTVSPost2010Prop38
140
0.0
102
RTVSPost2010PropOp38
 70
     0
102
RTVSPost2010Prop39
140
1.0
102
RTVSPost2010PropOp39
 70
     0
102
RTVSPost2010Prop40
 90
        0
102
RTVSPost2010PropOp40
 70
     0
102
RTVSPost2010Prop41ColorIndex
 90
       18
102
RTVSPost2010Prop41ColorRGB
 90
        0
102
RTVSPost2010PropOp41
 70
     0
102
RTVSPost2010Prop42
 90
       50
102
RTVSPost2010PropOp42
 70
     0
102
RTVSPost2010Prop43
 90
        3
102
RTVSPost2010PropOp43
 70
     0
102
RTVSPost2010Prop44ColorIndex
 90
        5
102
RTVSPost2010Prop44ColorRGB
 90
      255
102
RTVSPost2010PropOp44
 70
     0
102
RTVSPost2010Prop45
280
     0
102
RTVSPost2010PropOp45
 70
     0
102
RTVSPost2010Prop46
 90
       50
102
RTVSPost2010PropOp46
 70
     0
102
RTVSPost2010Prop47
 90
       50
102
RTVSPost2010PropOp47
 70
     0
102
RTVSPost2010Prop48
 90
       50
102
RTVSPost2010PropOp48
 70
     0
102
RTVSPost2010Prop49
280
     0
102
RTVSPost2010PropOp49
 70
     0
102
RTVSPost2010Prop50
 90
       50
102
RTVSPost2010PropOp50
 70
     0
102
RTVSPost2010Prop51ColorIndex
 90
      256
102
RTVSPost2010Prop51ColorRGB
 90
-16777216
102
RTVSPost2010PropOp51
 70
     0
102
RTVSPost2010Prop52
140
1.0
102
RTVSPost2010PropOp52
 70
     0
102
RTVSPost2010Prop53
 90
        2
102
RTVSPost2010PropOp53
 70
     0
102
RTVSPost2010Prop54
  1
strokes_ogs.tif
102
RTVSPost2010PropOp54
 70
     0
102
RTVSPost2010Prop55
280
     0
102
RTVSPost2010PropOp55
 70
     0
102
RTVSPost2010Prop56
140
1.0
102
RTVSPost2010PropOp56
 70
     0
102
RTVSPost2010Prop57
140
1.0
102
RTVSPost2010PropOp57
 70
     0
  0
XRECORD
  5
193
102
{ACAD_REACTORS
330
192
102
}
330
192
100
AcDbXrecord
280
     1
102
RTVSPropertyOp0
 70
     1
102
RTVSPropertyOp1
 70
     1
102
RTVSPropertyOp2
 70
     1
102
RTVSPropertyOp3
 70
     1
102
RTVSPropertyOp4
 70
     1
102
RTVSPropertyOp5
 70
     1
102
RTVSPropertyOp6
 70
     1
102
RTVSPropertyOp7
 70
     1
102
RTVSPropertyOp8
 70
     1
102
RTVSPropertyOp9
 70
     1
102
RTVSPropertyOp10
 70
     1
102
RTVSPropertyOp11
 70
     1
102
RTVSPropertyOp12
 70
     1
102
RTVSPropertyOp13
 70
     1
102
RTVSPropertyOp14
 70
     1
102
RTVSPropertyOp15
 70
     1
102
RTVSPropertyOp16
 70
     1
102
RTVSPropertyOp17
 70
     1
102
RTVSPropertyOp18
 70
     1
102
RTVSPropertyOp19
 70
     1
102
RTVSPropertyOp20
 70
     1
102
RTVSPropertyOp21
 70
     1
102
RTVSPropertyOp22
 70
     1
102
RTVSPropertyOp23
 70
     1
102
RTVSPropertyOp24
 70
     1
102
RTVSPropertyOp25
 70
     1
102
RTVSPropertyOp26
 70
     1
102
RTVSPropertyOp27
 70
     1
102
RTVSPropertyOp28
 70
     1
102
RTVSPropertyOp29
 70
     1
102
RTVSPropertyOp30
 70
     1
102
RTVSPropertyOp31
 70
     1
102
RTVSPropertyOp32
 70
     1
102
RTVSPropertyOp33
 70
     1
102
RTVSPropertyOp34
 70
     1
102
RTVSPropertyOp35
 70
     1
102
RTVSPropertyOp36
 70
     1
102
RTVSPropertyOp37
 70
     1
102
RTVSPropertyOp38
 70
     1
102
RTVSPropertyOp39
 70
     1
102
RTVSPropertyOp40
 70
     1
102
RTVSPropertyOp41
 70
     1
102
RTVSPropertyOp42
 70
     1
102
RTVSPropertyOp43
 70
     1
102
RTVSPropertyOp44
 70
     1
102
RTVSPropertyOp45
 70
     1
102
RTVSPropertyOp46
 70
     1
102
RTVSPropertyOp47
 70
     1
102
RTVSPropertyOp48
 70
     1
102
RTVSPropertyOp49
 70
     1
102
RTVSPropertyOp50
 70
     1
102
RTVSPropertyOp51
 70
     0
102
RTVSPropertyOp52
 70
     0
102
RTVSPropertyOp53
 70
     1
102
RTVSPropertyOp54
 70
     1
102
RTVSPropertyOp55
 70
     1
102
RTVSPropertyOp56
 70
     1
102
RTVSPropertyOp57
 70
     1
102
RTVSPost2010Prop28
280
     0
102
RTVSPost2010PropOp28
 70
     1
102
RTVSPost2010Prop29
280
     1
102
RTVSPost2010PropOp29
 70
     1
102
RTVSPost2010Prop30
280
     1
102
RTVSPost2010PropOp30
 70
     1
102
RTVSPost2010Prop31
280
     0
102
RTVSPost2010PropOp31
 70
     1
102
RTVSPost2010Prop32
280
     0
102
RTVSPost2010PropOp32
 70
     1
102
RTVSPost2010Prop33
280
     0
102
RTVSPost2010PropOp33
 70
     1
102
RTVSPost2010Prop34
280
     0
102
RTVSPost2010PropOp34
 70
     1
102
RTVSPost2010Prop35
280
     0
102
RTVSPost2010PropOp35
 70
     1
102
RTVSPost2010Prop36
280
     0
102
RTVSPost2010PropOp36
 70
     1
102
RTVSPost2010Prop37
 90
       50
102
RTVSPost2010PropOp37
 70
     1
102
RTVSPost2010Prop38
140
0.0
102
RTVSPost2010PropOp38
 70
     1
102
RTVSPost2010Prop39
140
1.0
102
RTVSPost2010PropOp39
 70
     1
102
RTVSPost2010Prop40
 90
        0
102
RTVSPost2010PropOp40
 70
     1
102
RTVSPost2010Prop41ColorIndex
 90
       18
102
RTVSPost2010Prop41ColorRGB
 90
        0
102
RTVSPost2010PropOp41
 70
     1
102
RTVSPost2010Prop42
 90
       50
102
RTVSPost2010PropOp42
 70
     1
102
RTVSPost2010Prop43
 90
        3
102
RTVSPost2010PropOp43
 70
     1
102
RTVSPost2010Prop44ColorIndex
 90
        5
102
RTVSPost2010Prop44ColorRGB
 90
      255
102
RTVSPost2010PropOp44
 70
     1
102
RTVSPost2010Prop45
280
     0
102
RTVSPost2010PropOp45
 70
     1
102
RTVSPost2010Prop46
 90
       50
102
RTVSPost2010PropOp46
 70
     1
102
RTVSPost2010Prop47
 90
       50
102
RTVSPost2010PropOp47
 70
     1
102
RTVSPost2010Prop48
 90
       50
102
RTVSPost2010PropOp48
 70
     1
102
RTVSPost2010Prop49
280
     0
102
RTVSPost2010PropOp49
 70
     1
102
RTVSPost2010Prop50
 90
       50
102
RTVSPost2010PropOp50
 70
     1
102
RTVSPost2010Prop51ColorIndex
 90
      256
102
RTVSPost2010Prop51ColorRGB
 90
-16777216
102
RTVSPost2010PropOp51
 70
     0
102
RTVSPost2010Prop52
140
1.0
102
RTVSPost2010PropOp52
 70
     0
102
RTVSPost2010Prop53
 90
        2
102
RTVSPost2010PropOp53
 70
     1
102
RTVSPost2010Prop54
  1
strokes_ogs.tif
102
RTVSPost2010PropOp54
 70
     1
102
RTVSPost2010Prop55
280
     0
102
RTVSPost2010PropOp55
 70
     1
102
RTVSPost2010Prop56
140
1.0
102
RTVSPost2010PropOp56
 70
     1
102
RTVSPost2010Prop57
140
1.0
102
RTVSPost2010PropOp57
 70
     1
  0
XRECORD
  5
19B
102
{ACAD_REACTORS
330
19A
102
}
330
19A
100
AcDbXrecord
280
     1
102
RTVSPropertyOp0
 70
     0
102
RTVSPropertyOp1
 70
     0
102
RTVSPropertyOp2
 70
     0
102
RTVSPropertyOp3
 70
     0
102
RTVSPropertyOp4
 70
     0
102
RTVSPropertyOp5
 70
     0
102
RTVSPropertyOp6
 70
     0
102
RTVSPropertyOp7
 70
     0
102
RTVSPropertyOp8
 70
     0
102
RTVSPropertyOp9
 70
     0
102
RTVSPropertyOp10
 70
     0
102
RTVSPropertyOp11
 70
     0
102
RTVSPropertyOp12
 70
     0
102
RTVSPropertyOp13
 70
     0
102
RTVSPropertyOp14
 70
     2
102
RTVSPropertyOp15
 70
     0
102
RTVSPropertyOp16
 70
     0
102
RTVSPropertyOp17
 70
     0
102
RTVSPropertyOp18
 70
     0
102
RTVSPropertyOp19
 70
     0
102
RTVSPropertyOp20
 70
     0
102
RTVSPropertyOp21
 70
     0
102
RTVSPropertyOp22
 70
     0
102
RTVSPropertyOp23
 70
     0
102
RTVSPropertyOp24
 70
     0
102
RTVSPropertyOp25
 70
     0
102
RTVSPropertyOp26
 70
     0
102
RTVSPropertyOp27
 70
     0
102
RTVSPropertyOp28
 70
     0
102
RTVSPropertyOp29
 70
     0
102
RTVSPropertyOp30
 70
     0
102
RTVSPropertyOp31
 70
     0
102
RTVSPropertyOp32
 70
     0
102
RTVSPropertyOp33
 70
     0
102
RTVSPropertyOp34
 70
     0
102
RTVSPropertyOp35
 70
     0
102
RTVSPropertyOp36
 70
     0
102
RTVSPropertyOp37
 70
     0
102
RTVSPropertyOp38
 70
     0
102
RTVSPropertyOp39
 70
     0
102
RTVSPropertyOp40
 70
     0
102
RTVSPropertyOp41
 70
     0
102
RTVSPropertyOp42
 70
     0
102
RTVSPropertyOp43
 70
     0
102
RTVSPropertyOp44
 70
     0
102
RTVSPropertyOp45
 70
     0
102
RTVSPropertyOp46
 70
     0
102
RTVSPropertyOp47
 70
     0
102
RTVSPropertyOp48
 70
     0
102
RTVSPropertyOp49
 70
     0
102
RTVSPropertyOp50
 70
     0
102
RTVSPropertyOp51
 70
     0
102
RTVSPropertyOp52
 70
     0
102
RTVSPropertyOp53
 70
     0
102
RTVSPropertyOp54
 70
     0
102
RTVSPropertyOp55
 70
     0
102
RTVSPropertyOp56
 70
     0
102
RTVSPropertyOp57
 70
     0
102
RTVSPost2010Prop28
280
     0
102
RTVSPost2010PropOp28
 70
     0
102
RTVSPost2010Prop29
280
     1
102
RTVSPost2010PropOp29
 70
     0
102
RTVSPost2010Prop30
280
     1
102
RTVSPost2010PropOp30
 70
     0
102
RTVSPost2010Prop31
280
     0
102
RTVSPost2010PropOp31
 70
     0
102
RTVSPost2010Prop32
280
     0
102
RTVSPost2010PropOp32
 70
     0
102
RTVSPost2010Prop33
280
     0
102
RTVSPost2010PropOp33
 70
     0
102
RTVSPost2010Prop34
280
     0
102
RTVSPost2010PropOp34
 70
     0
102
RTVSPost2010Prop35
280
     0
102
RTVSPost2010PropOp35
 70
     0
102
RTVSPost2010Prop36
280
     0
102
RTVSPost2010PropOp36
 70
     0
102
RTVSPost2010Prop37
 90
       50
102
RTVSPost2010PropOp37
 70
     0
102
RTVSPost2010Prop38
140
0.0
102
RTVSPost2010PropOp38
 70
     0
102
RTVSPost2010Prop39
140
1.0
102
RTVSPost2010PropOp39
 70
     0
102
RTVSPost2010Prop40
 90
        0
102
RTVSPost2010PropOp40
 70
     0
102
RTVSPost2010Prop41ColorIndex
 90
       18
102
RTVSPost2010Prop41ColorRGB
 90
        0
102
RTVSPost2010PropOp41
 70
     0
102
RTVSPost2010Prop42
 90
       50
102
RTVSPost2010PropOp42
 70
     0
102
RTVSPost2010Prop43
 90
        3
102
RTVSPost2010PropOp43
 70
     0
102
RTVSPost2010Prop44ColorIndex
 90
        5
102
RTVSPost2010Prop44ColorRGB
 90
      255
102
RTVSPost2010PropOp44
 70
     0
102
RTVSPost2010Prop45
280
     0
102
RTVSPost2010PropOp45
 70
     0
102
RTVSPost2010Prop46
 90
       50
102
RTVSPost2010PropOp46
 70
     0
102
RTVSPost2010Prop47
 90
       50
102
RTVSPost2010PropOp47
 70
     0
102
RTVSPost2010Prop48
 90
       50
102
RTVSPost2010PropOp48
 70
     0
102
RTVSPost2010Prop49
280
     0
102
RTVSPost2010PropOp49
 70
     0
102
RTVSPost2010Prop50
 90
       50
102
RTVSPost2010PropOp50
 70
     0
102
RTVSPost2010Prop51ColorIndex
 90
      256
102
RTVSPost2010Prop51ColorRGB
 90
-16777216
102
RTVSPost2010PropOp51
 70
     0
102
RTVSPost2010Prop52
140
1.0
102
RTVSPost2010PropOp52
 70
     0
102
RTVSPost2010Prop53
 90
        2
102
RTVSPost2010PropOp53
 70
     0
102
RTVSPost2010Prop54
  1
strokes_ogs.tif
102
RTVSPost2010PropOp54
 70
     0
102
RTVSPost2010Prop55
280
     0
102
RTVSPost2010PropOp55
 70
     0
102
RTVSPost2010Prop56
140
1.0
102
RTVSPost2010PropOp56
 70
     0
102
RTVSPost2010Prop57
140
1.0
102
RTVSPost2010PropOp57
 70
     0
  0
XRECORD
  5
189
102
{ACAD_REACTORS
330
188
102
}
330
188
100
AcDbXrecord
280
     1
102
RTVSPropertyOp0
 70
     1
102
RTVSPropertyOp1
 70
     1
102
RTVSPropertyOp2
 70
     1
102
RTVSPropertyOp3
 70
     1
102
RTVSPropertyOp4
 70
     1
102
RTVSPropertyOp5
 70
     1
102
RTVSPropertyOp6
 70
     1
102
RTVSPropertyOp7
 70
     1
102
RTVSPropertyOp8
 70
     1
102
RTVSPropertyOp9
 70
     1
102
RTVSPropertyOp10
 70
     1
102
RTVSPropertyOp11
 70
     1
102
RTVSPropertyOp12
 70
     1
102
RTVSPropertyOp13
 70
     1
102
RTVSPropertyOp14
 70
     1
102
RTVSPropertyOp15
 70
     1
102
RTVSPropertyOp16
 70
     1
102
RTVSPropertyOp17
 70
     1
102
RTVSPropertyOp18
 70
     1
102
RTVSPropertyOp19
 70
     1
102
RTVSPropertyOp20
 70
     1
102
RTVSPropertyOp21
 70
     1
102
RTVSPropertyOp22
 70
     1
102
RTVSPropertyOp23
 70
     1
102
RTVSPropertyOp24
 70
     1
102
RTVSPropertyOp25
 70
     1
102
RTVSPropertyOp26
 70
     1
102
RTVSPropertyOp27
 70
     1
102
RTVSPropertyOp28
 70
     1
102
RTVSPropertyOp29
 70
     1
102
RTVSPropertyOp30
 70
     1
102
RTVSPropertyOp31
 70
     1
102
RTVSPropertyOp32
 70
     1
102
RTVSPropertyOp33
 70
     1
102
RTVSPropertyOp34
 70
     1
102
RTVSPropertyOp35
 70
     1
102
RTVSPropertyOp36
 70
     1
102
RTVSPropertyOp37
 70
     1
102
RTVSPropertyOp38
 70
     1
102
RTVSPropertyOp39
 70
     1
102
RTVSPropertyOp40
 70
     1
102
RTVSPropertyOp41
 70
     1
102
RTVSPropertyOp42
 70
     1
102
RTVSPropertyOp43
 70
     1
102
RTVSPropertyOp44
 70
     1
102
RTVSPropertyOp45
 70
     1
102
RTVSPropertyOp46
 70
     1
102
RTVSPropertyOp47
 70
     1
102
RTVSPropertyOp48
 70
     1
102
RTVSPropertyOp49
 70
     1
102
RTVSPropertyOp50
 70
     1
102
RTVSPropertyOp51
 70
     0
102
RTVSPropertyOp52
 70
     0
102
RTVSPropertyOp53
 70
     1
102
RTVSPropertyOp54
 70
     1
102
RTVSPropertyOp55
 70
     1
102
RTVSPropertyOp56
 70
     1
102
RTVSPropertyOp57
 70
     1
102
RTVSPost2010Prop28
280
     0
102
RTVSPost2010PropOp28
 70
     1
102
RTVSPost2010Prop29
280
     1
102
RTVSPost2010PropOp29
 70
     1
102
RTVSPost2010Prop30
280
     1
102
RTVSPost2010PropOp30
 70
     1
102
RTVSPost2010Prop31
280
     0
102
RTVSPost2010PropOp31
 70
     1
102
RTVSPost2010Prop32
280
     0
102
RTVSPost2010PropOp32
 70
     1
102
RTVSPost2010Prop33
280
     0
102
RTVSPost2010PropOp33
 70
     1
102
RTVSPost2010Prop34
280
     0
102
RTVSPost2010PropOp34
 70
     1
102
RTVSPost2010Prop35
280
     0
102
RTVSPost2010PropOp35
 70
     1
102
RTVSPost2010Prop36
280
     0
102
RTVSPost2010PropOp36
 70
     1
102
RTVSPost2010Prop37
 90
       50
102
RTVSPost2010PropOp37
 70
     1
102
RTVSPost2010Prop38
140
0.0
102
RTVSPost2010PropOp38
 70
     1
102
RTVSPost2010Prop39
140
1.0
102
RTVSPost2010PropOp39
 70
     1
102
RTVSPost2010Prop40
 90
        0
102
RTVSPost2010PropOp40
 70
     1
102
RTVSPost2010Prop41ColorIndex
 90
       18
102
RTVSPost2010Prop41ColorRGB
 90
        0
102
RTVSPost2010PropOp41
 70
     1
102
RTVSPost2010Prop42
 90
       50
102
RTVSPost2010PropOp42
 70
     1
102
RTVSPost2010Prop43
 90
        3
102
RTVSPost2010PropOp43
 70
     1
102
RTVSPost2010Prop44ColorIndex
 90
        5
102
RTVSPost2010Prop44ColorRGB
 90
      255
102
RTVSPost2010PropOp44
 70
     1
102
RTVSPost2010Prop45
280
     0
102
RTVSPost2010PropOp45
 70
     1
102
RTVSPost2010Prop46
 90
       50
102
RTVSPost2010PropOp46
 70
     1
102
RTVSPost2010Prop47
 90
       50
102
RTVSPost2010PropOp47
 70
     1
102
RTVSPost2010Prop48
 90
       50
102
RTVSPost2010PropOp48
 70
     1
102
RTVSPost2010Prop49
280
     0
102
RTVSPost2010PropOp49
 70
     1
102
RTVSPost2010Prop50
 90
       50
102
RTVSPost2010PropOp50
 70
     1
102
RTVSPost2010Prop51ColorIndex
 90
      256
102
RTVSPost2010Prop51ColorRGB
 90
-16777216
102
RTVSPost2010PropOp51
 70
     0
102
RTVSPost2010Prop52
140
1.0
102
RTVSPost2010PropOp52
 70
     0
102
RTVSPost2010Prop53
 90
        2
102
RTVSPost2010PropOp53
 70
     1
102
RTVSPost2010Prop54
  1
strokes_ogs.tif
102
RTVSPost2010PropOp54
 70
     1
102
RTVSPost2010Prop55
280
     0
102
RTVSPost2010PropOp55
 70
     1
102
RTVSPost2010Prop56
140
1.0
102
RTVSPost2010PropOp56
 70
     1
102
RTVSPost2010Prop57
140
1.0
102
RTVSPost2010PropOp57
 70
     1
  0
XRECORD
  5
1A7
102
{ACAD_REACTORS
330
1A6
102
}
330
1A6
100
AcDbXrecord
280
     1
102
RTVSPropertyOp0
 70
     1
102
RTVSPropertyOp1
 70
     1
102
RTVSPropertyOp2
 70
     1
102
RTVSPropertyOp3
 70
     1
102
RTVSPropertyOp4
 70
     1
102
RTVSPropertyOp5
 70
     1
102
RTVSPropertyOp6
 70
     1
102
RTVSPropertyOp7
 70
     1
102
RTVSPropertyOp8
 70
     1
102
RTVSPropertyOp9
 70
     1
102
RTVSPropertyOp10
 70
     1
102
RTVSPropertyOp11
 70
     1
102
RTVSPropertyOp12
 70
     1
102
RTVSPropertyOp13
 70
     1
102
RTVSPropertyOp14
 70
     1
102
RTVSPropertyOp15
 70
     1
102
RTVSPropertyOp16
 70
     1
102
RTVSPropertyOp17
 70
     1
102
RTVSPropertyOp18
 70
     1
102
RTVSPropertyOp19
 70
     1
102
RTVSPropertyOp20
 70
     1
102
RTVSPropertyOp21
 70
     1
102
RTVSPropertyOp22
 70
     1
102
RTVSPropertyOp23
 70
     1
102
RTVSPropertyOp24
 70
     1
102
RTVSPropertyOp25
 70
     1
102
RTVSPropertyOp26
 70
     1
102
RTVSPropertyOp27
 70
     1
102
RTVSPropertyOp28
 70
     1
102
RTVSPropertyOp29
 70
     1
102
RTVSPropertyOp30
 70
     1
102
RTVSPropertyOp31
 70
     1
102
RTVSPropertyOp32
 70
     1
102
RTVSPropertyOp33
 70
     1
102
RTVSPropertyOp34
 70
     1
102
RTVSPropertyOp35
 70
     1
102
RTVSPropertyOp36
 70
     1
102
RTVSPropertyOp37
 70
     1
102
RTVSPropertyOp38
 70
     1
102
RTVSPropertyOp39
 70
     1
102
RTVSPropertyOp40
 70
     1
102
RTVSPropertyOp41
 70
     1
102
RTVSPropertyOp42
 70
     1
102
RTVSPropertyOp43
 70
     1
102
RTVSPropertyOp44
 70
     1
102
RTVSPropertyOp45
 70
     1
102
RTVSPropertyOp46
 70
     1
102
RTVSPropertyOp47
 70
     1
102
RTVSPropertyOp48
 70
     1
102
RTVSPropertyOp49
 70
     1
102
RTVSPropertyOp50
 70
     1
102
RTVSPropertyOp51
 70
     0
102
RTVSPropertyOp52
 70
     0
102
RTVSPropertyOp53
 70
     1
102
RTVSPropertyOp54
 70
     1
102
RTVSPropertyOp55
 70
     1
102
RTVSPropertyOp56
 70
     1
102
RTVSPropertyOp57
 70
     1
102
RTVSPost2010Prop28
280
     0
102
RTVSPost2010PropOp28
 70
     1
102
RTVSPost2010Prop29
280
     1
102
RTVSPost2010PropOp29
 70
     1
102
RTVSPost2010Prop30
280
     1
102
RTVSPost2010PropOp30
 70
     1
102
RTVSPost2010Prop31
280
     0
102
RTVSPost2010PropOp31
 70
     1
102
RTVSPost2010Prop32
280
     0
102
RTVSPost2010PropOp32
 70
     1
102
RTVSPost2010Prop33
280
     0
102
RTVSPost2010PropOp33
 70
     1
102
RTVSPost2010Prop34
280
     0
102
RTVSPost2010PropOp34
 70
     1
102
RTVSPost2010Prop35
280
     0
102
RTVSPost2010PropOp35
 70
     1
102
RTVSPost2010Prop36
280
     0
102
RTVSPost2010PropOp36
 70
     1
102
RTVSPost2010Prop37
 90
       50
102
RTVSPost2010PropOp37
 70
     1
102
RTVSPost2010Prop38
140
0.0
102
RTVSPost2010PropOp38
 70
     1
102
RTVSPost2010Prop39
140
1.0
102
RTVSPost2010PropOp39
 70
     1
102
RTVSPost2010Prop40
 90
        0
102
RTVSPost2010PropOp40
 70
     1
102
RTVSPost2010Prop41ColorIndex
 90
       18
102
RTVSPost2010Prop41ColorRGB
 90
        0
102
RTVSPost2010PropOp41
 70
     1
102
RTVSPost2010Prop42
 90
       50
102
RTVSPost2010PropOp42
 70
     1
102
RTVSPost2010Prop43
 90
        3
102
RTVSPost2010PropOp43
 70
     1
102
RTVSPost2010Prop44ColorIndex
 90
        5
102
RTVSPost2010Prop44ColorRGB
 90
      255
102
RTVSPost2010PropOp44
 70
     1
102
RTVSPost2010Prop45
280
     0
102
RTVSPost2010PropOp45
 70
     1
102
RTVSPost2010Prop46
 90
       50
102
RTVSPost2010PropOp46
 70
     1
102
RTVSPost2010Prop47
 90
       50
102
RTVSPost2010PropOp47
 70
     1
102
RTVSPost2010Prop48
 90
       50
102
RTVSPost2010PropOp48
 70
     1
102
RTVSPost2010Prop49
280
     0
102
RTVSPost2010PropOp49
 70
     1
102
RTVSPost2010Prop50
 90
       50
102
RTVSPost2010PropOp50
 70
     1
102
RTVSPost2010Prop51ColorIndex
 90
      256
102
RTVSPost2010Prop51ColorRGB
 90
-16777216
102
RTVSPost2010PropOp51
 70
     0
102
RTVSPost2010Prop52
140
1.0
102
RTVSPost2010PropOp52
 70
     0
102
RTVSPost2010Prop53
 90
        2
102
RTVSPost2010PropOp53
 70
     1
102
RTVSPost2010Prop54
  1
strokes_ogs.tif
102
RTVSPost2010PropOp54
 70
     1
102
RTVSPost2010Prop55
280
     0
102
RTVSPost2010PropOp55
 70
     1
102
RTVSPost2010Prop56
140
1.0
102
RTVSPost2010PropOp56
 70
     1
102
RTVSPost2010Prop57
140
1.0
102
RTVSPost2010PropOp57
 70
     1
  0
XRECORD
  5
1A5
102
{ACAD_REACTORS
330
1A4
102
}
330
1A4
100
AcDbXrecord
280
     1
102
RTVSPropertyOp0
 70
     1
102
RTVSPropertyOp1
 70
     1
102
RTVSPropertyOp2
 70
     1
102
RTVSPropertyOp3
 70
     1
102
RTVSPropertyOp4
 70
     1
102
RTVSPropertyOp5
 70
     1
102
RTVSPropertyOp6
 70
     1
102
RTVSPropertyOp7
 70
     1
102
RTVSPropertyOp8
 70
     1
102
RTVSPropertyOp9
 70
     1
102
RTVSPropertyOp10
 70
     1
102
RTVSPropertyOp11
 70
     1
102
RTVSPropertyOp12
 70
     1
102
RTVSPropertyOp13
 70
     1
102
RTVSPropertyOp14
 70
     1
102
RTVSPropertyOp15
 70
     1
102
RTVSPropertyOp16
 70
     1
102
RTVSPropertyOp17
 70
     1
102
RTVSPropertyOp18
 70
     1
102
RTVSPropertyOp19
 70
     1
102
RTVSPropertyOp20
 70
     1
102
RTVSPropertyOp21
 70
     1
102
RTVSPropertyOp22
 70
     1
102
RTVSPropertyOp23
 70
     1
102
RTVSPropertyOp24
 70
     1
102
RTVSPropertyOp25
 70
     1
102
RTVSPropertyOp26
 70
     1
102
RTVSPropertyOp27
 70
     1
102
RTVSPropertyOp28
 70
     1
102
RTVSPropertyOp29
 70
     1
102
RTVSPropertyOp30
 70
     1
102
RTVSPropertyOp31
 70
     1
102
RTVSPropertyOp32
 70
     1
102
RTVSPropertyOp33
 70
     1
102
RTVSPropertyOp34
 70
     1
102
RTVSPropertyOp35
 70
     1
102
RTVSPropertyOp36
 70
     1
102
RTVSPropertyOp37
 70
     1
102
RTVSPropertyOp38
 70
     1
102
RTVSPropertyOp39
 70
     1
102
RTVSPropertyOp40
 70
     1
102
RTVSPropertyOp41
 70
     1
102
RTVSPropertyOp42
 70
     1
102
RTVSPropertyOp43
 70
     1
102
RTVSPropertyOp44
 70
     1
102
RTVSPropertyOp45
 70
     1
102
RTVSPropertyOp46
 70
     1
102
RTVSPropertyOp47
 70
     1
102
RTVSPropertyOp48
 70
     1
102
RTVSPropertyOp49
 70
     1
102
RTVSPropertyOp50
 70
     1
102
RTVSPropertyOp51
 70
     0
102
RTVSPropertyOp52
 70
     0
102
RTVSPropertyOp53
 70
     1
102
RTVSPropertyOp54
 70
     1
102
RTVSPropertyOp55
 70
     1
102
RTVSPropertyOp56
 70
     1
102
RTVSPropertyOp57
 70
     1
102
RTVSPost2010Prop28
280
     0
102
RTVSPost2010PropOp28
 70
     1
102
RTVSPost2010Prop29
280
     1
102
RTVSPost2010PropOp29
 70
     1
102
RTVSPost2010Prop30
280
     1
102
RTVSPost2010PropOp30
 70
     1
102
RTVSPost2010Prop31
280
     0
102
RTVSPost2010PropOp31
 70
     1
102
RTVSPost2010Prop32
280
     0
102
RTVSPost2010PropOp32
 70
     1
102
RTVSPost2010Prop33
280
     0
102
RTVSPost2010PropOp33
 70
     1
102
RTVSPost2010Prop34
280
     0
102
RTVSPost2010PropOp34
 70
     1
102
RTVSPost2010Prop35
280
     0
102
RTVSPost2010PropOp35
 70
     1
102
RTVSPost2010Prop36
280
     0
102
RTVSPost2010PropOp36
 70
     1
102
RTVSPost2010Prop37
 90
       50
102
RTVSPost2010PropOp37
 70
     1
102
RTVSPost2010Prop38
140
0.0
102
RTVSPost2010PropOp38
 70
     1
102
RTVSPost2010Prop39
140
1.0
102
RTVSPost2010PropOp39
 70
     1
102
RTVSPost2010Prop40
 90
        0
102
RTVSPost2010PropOp40
 70
     1
102
RTVSPost2010Prop41ColorIndex
 90
       18
102
RTVSPost2010Prop41ColorRGB
 90
        0
102
RTVSPost2010PropOp41
 70
     1
102
RTVSPost2010Prop42
 90
       50
102
RTVSPost2010PropOp42
 70
     1
102
RTVSPost2010Prop43
 90
        3
102
RTVSPost2010PropOp43
 70
     1
102
RTVSPost2010Prop44ColorIndex
 90
        5
102
RTVSPost2010Prop44ColorRGB
 90
      255
102
RTVSPost2010PropOp44
 70
     1
102
RTVSPost2010Prop45
280
     0
102
RTVSPost2010PropOp45
 70
     1
102
RTVSPost2010Prop46
 90
       50
102
RTVSPost2010PropOp46
 70
     1
102
RTVSPost2010Prop47
 90
       50
102
RTVSPost2010PropOp47
 70
     1
102
RTVSPost2010Prop48
 90
       50
102
RTVSPost2010PropOp48
 70
     1
102
RTVSPost2010Prop49
280
     0
102
RTVSPost2010PropOp49
 70
     1
102
RTVSPost2010Prop50
 90
       50
102
RTVSPost2010PropOp50
 70
     1
102
RTVSPost2010Prop51ColorIndex
 90
      256
102
RTVSPost2010Prop51ColorRGB
 90
-16777216
102
RTVSPost2010PropOp51
 70
     0
102
RTVSPost2010Prop52
140
1.0
102
RTVSPost2010PropOp52
 70
     0
102
RTVSPost2010Prop53
 90
        2
102
RTVSPost2010PropOp53
 70
     1
102
RTVSPost2010Prop54
  1
strokes_ogs.tif
102
RTVSPost2010PropOp54
 70
     1
102
RTVSPost2010Prop55
280
     0
102
RTVSPost2010PropOp55
 70
     1
102
RTVSPost2010Prop56
140
1.0
102
RTVSPost2010PropOp56
 70
     1
102
RTVSPost2010Prop57
140
1.0
102
RTVSPost2010PropOp57
 70
     1
  0
XRECORD
  5
19F
102
{ACAD_REACTORS
330
19E
102
}
330
19E
100
AcDbXrecord
280
     1
102
RTVSPropertyOp0
 70
     1
102
RTVSPropertyOp1
 70
     1
102
RTVSPropertyOp2
 70
     1
102
RTVSPropertyOp3
 70
     1
102
RTVSPropertyOp4
 70
     1
102
RTVSPropertyOp5
 70
     1
102
RTVSPropertyOp6
 70
     1
102
RTVSPropertyOp7
 70
     1
102
RTVSPropertyOp8
 70
     1
102
RTVSPropertyOp9
 70
     1
102
RTVSPropertyOp10
 70
     1
102
RTVSPropertyOp11
 70
     1
102
RTVSPropertyOp12
 70
     1
102
RTVSPropertyOp13
 70
     1
102
RTVSPropertyOp14
 70
     1
102
RTVSPropertyOp15
 70
     1
102
RTVSPropertyOp16
 70
     1
102
RTVSPropertyOp17
 70
     1
102
RTVSPropertyOp18
 70
     1
102
RTVSPropertyOp19
 70
     1
102
RTVSPropertyOp20
 70
     1
102
RTVSPropertyOp21
 70
     1
102
RTVSPropertyOp22
 70
     1
102
RTVSPropertyOp23
 70
     1
102
RTVSPropertyOp24
 70
     1
102
RTVSPropertyOp25
 70
     1
102
RTVSPropertyOp26
 70
     1
102
RTVSPropertyOp27
 70
     1
102
RTVSPropertyOp28
 70
     1
102
RTVSPropertyOp29
 70
     1
102
RTVSPropertyOp30
 70
     1
102
RTVSPropertyOp31
 70
     1
102
RTVSPropertyOp32
 70
     1
102
RTVSPropertyOp33
 70
     1
102
RTVSPropertyOp34
 70
     1
102
RTVSPropertyOp35
 70
     1
102
RTVSPropertyOp36
 70
     1
102
RTVSPropertyOp37
 70
     1
102
RTVSPropertyOp38
 70
     1
102
RTVSPropertyOp39
 70
     1
102
RTVSPropertyOp40
 70
     1
102
RTVSPropertyOp41
 70
     1
102
RTVSPropertyOp42
 70
     1
102
RTVSPropertyOp43
 70
     1
102
RTVSPropertyOp44
 70
     1
102
RTVSPropertyOp45
 70
     1
102
RTVSPropertyOp46
 70
     1
102
RTVSPropertyOp47
 70
     1
102
RTVSPropertyOp48
 70
     1
102
RTVSPropertyOp49
 70
     1
102
RTVSPropertyOp50
 70
     1
102
RTVSPropertyOp51
 70
     0
102
RTVSPropertyOp52
 70
     0
102
RTVSPropertyOp53
 70
     1
102
RTVSPropertyOp54
 70
     1
102
RTVSPropertyOp55
 70
     1
102
RTVSPropertyOp56
 70
     1
102
RTVSPropertyOp57
 70
     1
102
RTVSPost2010Prop28
280
     0
102
RTVSPost2010PropOp28
 70
     1
102
RTVSPost2010Prop29
280
     1
102
RTVSPost2010PropOp29
 70
     1
102
RTVSPost2010Prop30
280
     1
102
RTVSPost2010PropOp30
 70
     1
102
RTVSPost2010Prop31
280
     0
102
RTVSPost2010PropOp31
 70
     1
102
RTVSPost2010Prop32
280
     0
102
RTVSPost2010PropOp32
 70
     1
102
RTVSPost2010Prop33
280
     0
102
RTVSPost2010PropOp33
 70
     1
102
RTVSPost2010Prop34
280
     0
102
RTVSPost2010PropOp34
 70
     1
102
RTVSPost2010Prop35
280
     0
102
RTVSPost2010PropOp35
 70
     1
102
RTVSPost2010Prop36
280
     0
102
RTVSPost2010PropOp36
 70
     1
102
RTVSPost2010Prop37
 90
       50
102
RTVSPost2010PropOp37
 70
     1
102
RTVSPost2010Prop38
140
0.0
102
RTVSPost2010PropOp38
 70
     1
102
RTVSPost2010Prop39
140
1.0
102
RTVSPost2010PropOp39
 70
     1
102
RTVSPost2010Prop40
 90
        0
102
RTVSPost2010PropOp40
 70
     1
102
RTVSPost2010Prop41ColorIndex
 90
       18
102
RTVSPost2010Prop41ColorRGB
 90
        0
102
RTVSPost2010PropOp41
 70
     1
102
RTVSPost2010Prop42
 90
       50
102
RTVSPost2010PropOp42
 70
     1
102
RTVSPost2010Prop43
 90
        3
102
RTVSPost2010PropOp43
 70
     1
102
RTVSPost2010Prop44ColorIndex
 90
        5
102
RTVSPost2010Prop44ColorRGB
 90
      255
102
RTVSPost2010PropOp44
 70
     1
102
RTVSPost2010Prop45
280
     0
102
RTVSPost2010PropOp45
 70
     1
102
RTVSPost2010Prop46
 90
       50
102
RTVSPost2010PropOp46
 70
     1
102
RTVSPost2010Prop47
 90
       50
102
RTVSPost2010PropOp47
 70
     1
102
RTVSPost2010Prop48
 90
       50
102
RTVSPost2010PropOp48
 70
     1
102
RTVSPost2010Prop49
280
     0
102
RTVSPost2010PropOp49
 70
     1
102
RTVSPost2010Prop50
 90
       50
102
RTVSPost2010PropOp50
 70
     1
102
RTVSPost2010Prop51ColorIndex
 90
      256
102
RTVSPost2010Prop51ColorRGB
 90
-16777216
102
RTVSPost2010PropOp51
 70
     0
102
RTVSPost2010Prop52
140
1.0
102
RTVSPost2010PropOp52
 70
     0
102
RTVSPost2010Prop53
 90
        2
102
RTVSPost2010PropOp53
 70
     1
102
RTVSPost2010Prop54
  1
strokes_ogs.tif
102
RTVSPost2010PropOp54
 70
     1
102
RTVSPost2010Prop55
280
     0
102
RTVSPost2010PropOp55
 70
     1
102
RTVSPost2010Prop56
140
1.0
102
RTVSPost2010PropOp56
 70
     1
102
RTVSPost2010Prop57
140
1.0
102
RTVSPost2010PropOp57
 70
     1
  0
XRECORD
  5
1A1
102
{ACAD_REACTORS
330
1A0
102
}
330
1A0
100
AcDbXrecord
280
     1
102
RTVSPropertyOp0
 70
     1
102
RTVSPropertyOp1
 70
     1
102
RTVSPropertyOp2
 70
     1
102
RTVSPropertyOp3
 70
     1
102
RTVSPropertyOp4
 70
     1
102
RTVSPropertyOp5
 70
     1
102
RTVSPropertyOp6
 70
     1
102
RTVSPropertyOp7
 70
     1
102
RTVSPropertyOp8
 70
     1
102
RTVSPropertyOp9
 70
     1
102
RTVSPropertyOp10
 70
     1
102
RTVSPropertyOp11
 70
     1
102
RTVSPropertyOp12
 70
     1
102
RTVSPropertyOp13
 70
     1
102
RTVSPropertyOp14
 70
     1
102
RTVSPropertyOp15
 70
     1
102
RTVSPropertyOp16
 70
     1
102
RTVSPropertyOp17
 70
     1
102
RTVSPropertyOp18
 70
     1
102
RTVSPropertyOp19
 70
     1
102
RTVSPropertyOp20
 70
     1
102
RTVSPropertyOp21
 70
     1
102
RTVSPropertyOp22
 70
     1
102
RTVSPropertyOp23
 70
     1
102
RTVSPropertyOp24
 70
     1
102
RTVSPropertyOp25
 70
     1
102
RTVSPropertyOp26
 70
     1
102
RTVSPropertyOp27
 70
     1
102
RTVSPropertyOp28
 70
     1
102
RTVSPropertyOp29
 70
     1
102
RTVSPropertyOp30
 70
     1
102
RTVSPropertyOp31
 70
     1
102
RTVSPropertyOp32
 70
     1
102
RTVSPropertyOp33
 70
     1
102
RTVSPropertyOp34
 70
     1
102
RTVSPropertyOp35
 70
     1
102
RTVSPropertyOp36
 70
     1
102
RTVSPropertyOp37
 70
     1
102
RTVSPropertyOp38
 70
     1
102
RTVSPropertyOp39
 70
     1
102
RTVSPropertyOp40
 70
     1
102
RTVSPropertyOp41
 70
     1
102
RTVSPropertyOp42
 70
     1
102
RTVSPropertyOp43
 70
     1
102
RTVSPropertyOp44
 70
     1
102
RTVSPropertyOp45
 70
     1
102
RTVSPropertyOp46
 70
     1
102
RTVSPropertyOp47
 70
     1
102
RTVSPropertyOp48
 70
     1
102
RTVSPropertyOp49
 70
     1
102
RTVSPropertyOp50
 70
     1
102
RTVSPropertyOp51
 70
     0
102
RTVSPropertyOp52
 70
     0
102
RTVSPropertyOp53
 70
     1
102
RTVSPropertyOp54
 70
     1
102
RTVSPropertyOp55
 70
     1
102
RTVSPropertyOp56
 70
     1
102
RTVSPropertyOp57
 70
     1
102
RTVSPost2010Prop28
280
     0
102
RTVSPost2010PropOp28
 70
     1
102
RTVSPost2010Prop29
280
     1
102
RTVSPost2010PropOp29
 70
     1
102
RTVSPost2010Prop30
280
     1
102
RTVSPost2010PropOp30
 70
     1
102
RTVSPost2010Prop31
280
     0
102
RTVSPost2010PropOp31
 70
     1
102
RTVSPost2010Prop32
280
     0
102
RTVSPost2010PropOp32
 70
     1
102
RTVSPost2010Prop33
280
     0
102
RTVSPost2010PropOp33
 70
     1
102
RTVSPost2010Prop34
280
     0
102
RTVSPost2010PropOp34
 70
     1
102
RTVSPost2010Prop35
280
     0
102
RTVSPost2010PropOp35
 70
     1
102
RTVSPost2010Prop36
280
     0
102
RTVSPost2010PropOp36
 70
     1
102
RTVSPost2010Prop37
 90
       50
102
RTVSPost2010PropOp37
 70
     1
102
RTVSPost2010Prop38
140
0.0
102
RTVSPost2010PropOp38
 70
     1
102
RTVSPost2010Prop39
140
1.0
102
RTVSPost2010PropOp39
 70
     1
102
RTVSPost2010Prop40
 90
        0
102
RTVSPost2010PropOp40
 70
     1
102
RTVSPost2010Prop41ColorIndex
 90
       18
102
RTVSPost2010Prop41ColorRGB
 90
        0
102
RTVSPost2010PropOp41
 70
     1
102
RTVSPost2010Prop42
 90
       50
102
RTVSPost2010PropOp42
 70
     1
102
RTVSPost2010Prop43
 90
        3
102
RTVSPost2010PropOp43
 70
     1
102
RTVSPost2010Prop44ColorIndex
 90
        5
102
RTVSPost2010Prop44ColorRGB
 90
      255
102
RTVSPost2010PropOp44
 70
     1
102
RTVSPost2010Prop45
280
     0
102
RTVSPost2010PropOp45
 70
     1
102
RTVSPost2010Prop46
 90
       50
102
RTVSPost2010PropOp46
 70
     1
102
RTVSPost2010Prop47
 90
       50
102
RTVSPost2010PropOp47
 70
     1
102
RTVSPost2010Prop48
 90
       50
102
RTVSPost2010PropOp48
 70
     1
102
RTVSPost2010Prop49
280
     0
102
RTVSPost2010PropOp49
 70
     1
102
RTVSPost2010Prop50
 90
       50
102
RTVSPost2010PropOp50
 70
     1
102
RTVSPost2010Prop51ColorIndex
 90
      256
102
RTVSPost2010Prop51ColorRGB
 90
-16777216
102
RTVSPost2010PropOp51
 70
     0
102
RTVSPost2010Prop52
140
1.0
102
RTVSPost2010PropOp52
 70
     0
102
RTVSPost2010Prop53
 90
        2
102
RTVSPost2010PropOp53
 70
     1
102
RTVSPost2010Prop54
  1
strokes_ogs.tif
102
RTVSPost2010PropOp54
 70
     1
102
RTVSPost2010Prop55
280
     0
102
RTVSPost2010PropOp55
 70
     1
102
RTVSPost2010Prop56
140
1.0
102
RTVSPost2010PropOp56
 70
     1
102
RTVSPost2010Prop57
140
1.0
102
RTVSPost2010PropOp57
 70
     1
  0
XRECORD
  5
191
102
{ACAD_REACTORS
330
190
102
}
330
190
100
AcDbXrecord
280
     1
102
RTVSPropertyOp0
 70
     1
102
RTVSPropertyOp1
 70
     1
102
RTVSPropertyOp2
 70
     1
102
RTVSPropertyOp3
 70
     1
102
RTVSPropertyOp4
 70
     1
102
RTVSPropertyOp5
 70
     1
102
RTVSPropertyOp6
 70
     1
102
RTVSPropertyOp7
 70
     1
102
RTVSPropertyOp8
 70
     1
102
RTVSPropertyOp9
 70
     1
102
RTVSPropertyOp10
 70
     1
102
RTVSPropertyOp11
 70
     1
102
RTVSPropertyOp12
 70
     1
102
RTVSPropertyOp13
 70
     1
102
RTVSPropertyOp14
 70
     1
102
RTVSPropertyOp15
 70
     1
102
RTVSPropertyOp16
 70
     1
102
RTVSPropertyOp17
 70
     1
102
RTVSPropertyOp18
 70
     1
102
RTVSPropertyOp19
 70
     1
102
RTVSPropertyOp20
 70
     1
102
RTVSPropertyOp21
 70
     1
102
RTVSPropertyOp22
 70
     1
102
RTVSPropertyOp23
 70
     1
102
RTVSPropertyOp24
 70
     1
102
RTVSPropertyOp25
 70
     1
102
RTVSPropertyOp26
 70
     1
102
RTVSPropertyOp27
 70
     1
102
RTVSPropertyOp28
 70
     1
102
RTVSPropertyOp29
 70
     1
102
RTVSPropertyOp30
 70
     1
102
RTVSPropertyOp31
 70
     1
102
RTVSPropertyOp32
 70
     1
102
RTVSPropertyOp33
 70
     1
102
RTVSPropertyOp34
 70
     1
102
RTVSPropertyOp35
 70
     1
102
RTVSPropertyOp36
 70
     1
102
RTVSPropertyOp37
 70
     1
102
RTVSPropertyOp38
 70
     1
102
RTVSPropertyOp39
 70
     1
102
RTVSPropertyOp40
 70
     1
102
RTVSPropertyOp41
 70
     1
102
RTVSPropertyOp42
 70
     1
102
RTVSPropertyOp43
 70
     1
102
RTVSPropertyOp44
 70
     1
102
RTVSPropertyOp45
 70
     1
102
RTVSPropertyOp46
 70
     1
102
RTVSPropertyOp47
 70
     1
102
RTVSPropertyOp48
 70
     1
102
RTVSPropertyOp49
 70
     1
102
RTVSPropertyOp50
 70
     1
102
RTVSPropertyOp51
 70
     0
102
RTVSPropertyOp52
 70
     0
102
RTVSPropertyOp53
 70
     1
102
RTVSPropertyOp54
 70
     1
102
RTVSPropertyOp55
 70
     1
102
RTVSPropertyOp56
 70
     1
102
RTVSPropertyOp57
 70
     1
102
RTVSPost2010Prop28
280
     0
102
RTVSPost2010PropOp28
 70
     1
102
RTVSPost2010Prop29
280
     1
102
RTVSPost2010PropOp29
 70
     1
102
RTVSPost2010Prop30
280
     1
102
RTVSPost2010PropOp30
 70
     1
102
RTVSPost2010Prop31
280
     0
102
RTVSPost2010PropOp31
 70
     1
102
RTVSPost2010Prop32
280
     0
102
RTVSPost2010PropOp32
 70
     1
102
RTVSPost2010Prop33
280
     0
102
RTVSPost2010PropOp33
 70
     1
102
RTVSPost2010Prop34
280
     0
102
RTVSPost2010PropOp34
 70
     1
102
RTVSPost2010Prop35
280
     0
102
RTVSPost2010PropOp35
 70
     1
102
RTVSPost2010Prop36
280
     0
102
RTVSPost2010PropOp36
 70
     1
102
RTVSPost2010Prop37
 90
       50
102
RTVSPost2010PropOp37
 70
     1
102
RTVSPost2010Prop38
140
0.0
102
RTVSPost2010PropOp38
 70
     1
102
RTVSPost2010Prop39
140
1.0
102
RTVSPost2010PropOp39
 70
     1
102
RTVSPost2010Prop40
 90
        0
102
RTVSPost2010PropOp40
 70
     1
102
RTVSPost2010Prop41ColorIndex
 90
       18
102
RTVSPost2010Prop41ColorRGB
 90
        0
102
RTVSPost2010PropOp41
 70
     1
102
RTVSPost2010Prop42
 90
       50
102
RTVSPost2010PropOp42
 70
     1
102
RTVSPost2010Prop43
 90
        3
102
RTVSPost2010PropOp43
 70
     1
102
RTVSPost2010Prop44ColorIndex
 90
        5
102
RTVSPost2010Prop44ColorRGB
 90
      255
102
RTVSPost2010PropOp44
 70
     1
102
RTVSPost2010Prop45
280
     0
102
RTVSPost2010PropOp45
 70
     1
102
RTVSPost2010Prop46
 90
       50
102
RTVSPost2010PropOp46
 70
     1
102
RTVSPost2010Prop47
 90
       50
102
RTVSPost2010PropOp47
 70
     1
102
RTVSPost2010Prop48
 90
       50
102
RTVSPost2010PropOp48
 70
     1
102
RTVSPost2010Prop49
280
     0
102
RTVSPost2010PropOp49
 70
     1
102
RTVSPost2010Prop50
 90
       50
102
RTVSPost2010PropOp50
 70
     1
102
RTVSPost2010Prop51ColorIndex
 90
      256
102
RTVSPost2010Prop51ColorRGB
 90
-16777216
102
RTVSPost2010PropOp51
 70
     0
102
RTVSPost2010Prop52
140
1.0
102
RTVSPost2010PropOp52
 70
     0
102
RTVSPost2010Prop53
 90
        2
102
RTVSPost2010PropOp53
 70
     1
102
RTVSPost2010Prop54
  1
strokes_ogs.tif
102
RTVSPost2010PropOp54
 70
     1
102
RTVSPost2010Prop55
280
     0
102
RTVSPost2010PropOp55
 70
     1
102
RTVSPost2010Prop56
140
1.0
102
RTVSPost2010PropOp56
 70
     1
102
RTVSPost2010Prop57
140
1.0
102
RTVSPost2010PropOp57
 70
     1
  0
XRECORD
  5
183
102
{ACAD_REACTORS
330
182
102
}
330
182
100
AcDbXrecord
280
     1
102
RTVSPropertyOp0
 70
     1
102
RTVSPropertyOp1
 70
     1
102
RTVSPropertyOp2
 70
     1
102
RTVSPropertyOp3
 70
     1
102
RTVSPropertyOp4
 70
     1
102
RTVSPropertyOp5
 70
     1
102
RTVSPropertyOp6
 70
     1
102
RTVSPropertyOp7
 70
     1
102
RTVSPropertyOp8
 70
     1
102
RTVSPropertyOp9
 70
     1
102
RTVSPropertyOp10
 70
     1
102
RTVSPropertyOp11
 70
     1
102
RTVSPropertyOp12
 70
     1
102
RTVSPropertyOp13
 70
     1
102
RTVSPropertyOp14
 70
     1
102
RTVSPropertyOp15
 70
     1
102
RTVSPropertyOp16
 70
     1
102
RTVSPropertyOp17
 70
     1
102
RTVSPropertyOp18
 70
     1
102
RTVSPropertyOp19
 70
     1
102
RTVSPropertyOp20
 70
     1
102
RTVSPropertyOp21
 70
     1
102
RTVSPropertyOp22
 70
     1
102
RTVSPropertyOp23
 70
     1
102
RTVSPropertyOp24
 70
     1
102
RTVSPropertyOp25
 70
     1
102
RTVSPropertyOp26
 70
     1
102
RTVSPropertyOp27
 70
     1
102
RTVSPropertyOp28
 70
     1
102
RTVSPropertyOp29
 70
     1
102
RTVSPropertyOp30
 70
     1
102
RTVSPropertyOp31
 70
     1
102
RTVSPropertyOp32
 70
     1
102
RTVSPropertyOp33
 70
     1
102
RTVSPropertyOp34
 70
     1
102
RTVSPropertyOp35
 70
     1
102
RTVSPropertyOp36
 70
     1
102
RTVSPropertyOp37
 70
     1
102
RTVSPropertyOp38
 70
     1
102
RTVSPropertyOp39
 70
     1
102
RTVSPropertyOp40
 70
     1
102
RTVSPropertyOp41
 70
     1
102
RTVSPropertyOp42
 70
     1
102
RTVSPropertyOp43
 70
     1
102
RTVSPropertyOp44
 70
     1
102
RTVSPropertyOp45
 70
     1
102
RTVSPropertyOp46
 70
     1
102
RTVSPropertyOp47
 70
     1
102
RTVSPropertyOp48
 70
     1
102
RTVSPropertyOp49
 70
     1
102
RTVSPropertyOp50
 70
     1
102
RTVSPropertyOp51
 70
     0
102
RTVSPropertyOp52
 70
     0
102
RTVSPropertyOp53
 70
     1
102
RTVSPropertyOp54
 70
     1
102
RTVSPropertyOp55
 70
     1
102
RTVSPropertyOp56
 70
     1
102
RTVSPropertyOp57
 70
     1
102
RTVSPost2010Prop28
280
     0
102
RTVSPost2010PropOp28
 70
     1
102
RTVSPost2010Prop29
280
     1
102
RTVSPost2010PropOp29
 70
     1
102
RTVSPost2010Prop30
280
     1
102
RTVSPost2010PropOp30
 70
     1
102
RTVSPost2010Prop31
280
     0
102
RTVSPost2010PropOp31
 70
     1
102
RTVSPost2010Prop32
280
     0
102
RTVSPost2010PropOp32
 70
     1
102
RTVSPost2010Prop33
280
     0
102
RTVSPost2010PropOp33
 70
     1
102
RTVSPost2010Prop34
280
     0
102
RTVSPost2010PropOp34
 70
     1
102
RTVSPost2010Prop35
280
     0
102
RTVSPost2010PropOp35
 70
     1
102
RTVSPost2010Prop36
280
     0
102
RTVSPost2010PropOp36
 70
     1
102
RTVSPost2010Prop37
 90
       50
102
RTVSPost2010PropOp37
 70
     1
102
RTVSPost2010Prop38
140
0.0
102
RTVSPost2010PropOp38
 70
     1
102
RTVSPost2010Prop39
140
1.0
102
RTVSPost2010PropOp39
 70
     1
102
RTVSPost2010Prop40
 90
        0
102
RTVSPost2010PropOp40
 70
     1
102
RTVSPost2010Prop41ColorIndex
 90
       18
102
RTVSPost2010Prop41ColorRGB
 90
        0
102
RTVSPost2010PropOp41
 70
     1
102
RTVSPost2010Prop42
 90
       50
102
RTVSPost2010PropOp42
 70
     1
102
RTVSPost2010Prop43
 90
        3
102
RTVSPost2010PropOp43
 70
     1
102
RTVSPost2010Prop44ColorIndex
 90
        5
102
RTVSPost2010Prop44ColorRGB
 90
      255
102
RTVSPost2010PropOp44
 70
     1
102
RTVSPost2010Prop45
280
     0
102
RTVSPost2010PropOp45
 70
     1
102
RTVSPost2010Prop46
 90
       50
102
RTVSPost2010PropOp46
 70
     1
102
RTVSPost2010Prop47
 90
       50
102
RTVSPost2010PropOp47
 70
     1
102
RTVSPost2010Prop48
 90
       50
102
RTVSPost2010PropOp48
 70
     1
102
RTVSPost2010Prop49
280
     0
102
RTVSPost2010PropOp49
 70
     1
102
RTVSPost2010Prop50
 90
       50
102
RTVSPost2010PropOp50
 70
     1
102
RTVSPost2010Prop51ColorIndex
 90
      256
102
RTVSPost2010Prop51ColorRGB
 90
-16777216
102
RTVSPost2010PropOp51
 70
     0
102
RTVSPost2010Prop52
140
1.0
102
RTVSPost2010PropOp52
 70
     0
102
RTVSPost2010Prop53
 90
        2
102
RTVSPost2010PropOp53
 70
     1
102
RTVSPost2010Prop54
  1
strokes_ogs.tif
102
RTVSPost2010PropOp54
 70
     1
102
RTVSPost2010Prop55
280
     0
102
RTVSPost2010PropOp55
 70
     1
102
RTVSPost2010Prop56
140
1.0
102
RTVSPost2010PropOp56
 70
     1
102
RTVSPost2010Prop57
140
1.0
102
RTVSPost2010PropOp57
 70
     1
  0
XRECORD
  5
1A3
102
{ACAD_REACTORS
330
1A2
102
}
330
1A2
100
AcDbXrecord
280
     1
102
RTVSPropertyOp0
 70
     1
102
RTVSPropertyOp1
 70
     1
102
RTVSPropertyOp2
 70
     1
102
RTVSPropertyOp3
 70
     1
102
RTVSPropertyOp4
 70
     1
102
RTVSPropertyOp5
 70
     1
102
RTVSPropertyOp6
 70
     1
102
RTVSPropertyOp7
 70
     1
102
RTVSPropertyOp8
 70
     1
102
RTVSPropertyOp9
 70
     1
102
RTVSPropertyOp10
 70
     1
102
RTVSPropertyOp11
 70
     1
102
RTVSPropertyOp12
 70
     1
102
RTVSPropertyOp13
 70
     1
102
RTVSPropertyOp14
 70
     1
102
RTVSPropertyOp15
 70
     1
102
RTVSPropertyOp16
 70
     1
102
RTVSPropertyOp17
 70
     1
102
RTVSPropertyOp18
 70
     1
102
RTVSPropertyOp19
 70
     1
102
RTVSPropertyOp20
 70
     1
102
RTVSPropertyOp21
 70
     1
102
RTVSPropertyOp22
 70
     1
102
RTVSPropertyOp23
 70
     1
102
RTVSPropertyOp24
 70
     1
102
RTVSPropertyOp25
 70
     1
102
RTVSPropertyOp26
 70
     1
102
RTVSPropertyOp27
 70
     1
102
RTVSPropertyOp28
 70
     1
102
RTVSPropertyOp29
 70
     1
102
RTVSPropertyOp30
 70
     1
102
RTVSPropertyOp31
 70
     1
102
RTVSPropertyOp32
 70
     1
102
RTVSPropertyOp33
 70
     1
102
RTVSPropertyOp34
 70
     1
102
RTVSPropertyOp35
 70
     1
102
RTVSPropertyOp36
 70
     1
102
RTVSPropertyOp37
 70
     1
102
RTVSPropertyOp38
 70
     1
102
RTVSPropertyOp39
 70
     1
102
RTVSPropertyOp40
 70
     1
102
RTVSPropertyOp41
 70
     1
102
RTVSPropertyOp42
 70
     1
102
RTVSPropertyOp43
 70
     1
102
RTVSPropertyOp44
 70
     1
102
RTVSPropertyOp45
 70
     1
102
RTVSPropertyOp46
 70
     1
102
RTVSPropertyOp47
 70
     1
102
RTVSPropertyOp48
 70
     1
102
RTVSPropertyOp49
 70
     1
102
RTVSPropertyOp50
 70
     1
102
RTVSPropertyOp51
 70
     0
102
RTVSPropertyOp52
 70
     0
102
RTVSPropertyOp53
 70
     1
102
RTVSPropertyOp54
 70
     1
102
RTVSPropertyOp55
 70
     1
102
RTVSPropertyOp56
 70
     1
102
RTVSPropertyOp57
 70
     1
102
RTVSPost2010Prop28
280
     0
102
RTVSPost2010PropOp28
 70
     1
102
RTVSPost2010Prop29
280
     1
102
RTVSPost2010PropOp29
 70
     1
102
RTVSPost2010Prop30
280
     1
102
RTVSPost2010PropOp30
 70
     1
102
RTVSPost2010Prop31
280
     0
102
RTVSPost2010PropOp31
 70
     1
102
RTVSPost2010Prop32
280
     0
102
RTVSPost2010PropOp32
 70
     1
102
RTVSPost2010Prop33
280
     0
102
RTVSPost2010PropOp33
 70
     1
102
RTVSPost2010Prop34
280
     0
102
RTVSPost2010PropOp34
 70
     1
102
RTVSPost2010Prop35
280
     0
102
RTVSPost2010PropOp35
 70
     1
102
RTVSPost2010Prop36
280
     0
102
RTVSPost2010PropOp36
 70
     1
102
RTVSPost2010Prop37
 90
       50
102
RTVSPost2010PropOp37
 70
     1
102
RTVSPost2010Prop38
140
0.0
102
RTVSPost2010PropOp38
 70
     1
102
RTVSPost2010Prop39
140
1.0
102
RTVSPost2010PropOp39
 70
     1
102
RTVSPost2010Prop40
 90
        0
102
RTVSPost2010PropOp40
 70
     1
102
RTVSPost2010Prop41ColorIndex
 90
       18
102
RTVSPost2010Prop41ColorRGB
 90
        0
102
RTVSPost2010PropOp41
 70
     1
102
RTVSPost2010Prop42
 90
       50
102
RTVSPost2010PropOp42
 70
     1
102
RTVSPost2010Prop43
 90
        3
102
RTVSPost2010PropOp43
 70
     1
102
RTVSPost2010Prop44ColorIndex
 90
        5
102
RTVSPost2010Prop44ColorRGB
 90
      255
102
RTVSPost2010PropOp44
 70
     1
102
RTVSPost2010Prop45
280
     0
102
RTVSPost2010PropOp45
 70
     1
102
RTVSPost2010Prop46
 90
       50
102
RTVSPost2010PropOp46
 70
     1
102
RTVSPost2010Prop47
 90
       50
102
RTVSPost2010PropOp47
 70
     1
102
RTVSPost2010Prop48
 90
       50
102
RTVSPost2010PropOp48
 70
     1
102
RTVSPost2010Prop49
280
     0
102
RTVSPost2010PropOp49
 70
     1
102
RTVSPost2010Prop50
 90
       50
102
RTVSPost2010PropOp50
 70
     1
102
RTVSPost2010Prop51ColorIndex
 90
      256
102
RTVSPost2010Prop51ColorRGB
 90
-16777216
102
RTVSPost2010PropOp51
 70
     0
102
RTVSPost2010Prop52
140
1.0
102
RTVSPost2010PropOp52
 70
     0
102
RTVSPost2010Prop53
 90
        2
102
RTVSPost2010PropOp53
 70
     1
102
RTVSPost2010Prop54
  1
strokes_ogs.tif
102
RTVSPost2010PropOp54
 70
     1
102
RTVSPost2010Prop55
280
     0
102
RTVSPost2010PropOp55
 70
     1
102
RTVSPost2010Prop56
140
1.0
102
RTVSPost2010PropOp56
 70
     1
102
RTVSPost2010Prop57
140
1.0
102
RTVSPost2010PropOp57
 70
     1
  0
ENDSEC
  0
EOF
